скачать рок Русский рок от А до Я скачать рок
   
 
 
Навигация
Главная Истории групп Рок-библиотека Рок-календарь Рок-юмор mp3 Музыкальный софт Интересные ссылки Обратная связь

Аккорды
А Б В Г Д Е
Ж З И К Л М
Н О П Р С Т
У Ф Х Ч Ш Ы
*
Э Ю Я 0-9
*

Таблица аккордов


GTP
А Б В Г Д Е
Ж З И К Л М
Н О П Р С Т
У Ф Х Ч Ш Ы
*
Э Ю Я 0-9
*

F.A.Q. по Guitar Pro 4


Опрос
Как давно вы слушаете русский рок?

 
Немного рекламы
 

 
Аккорды Пилот - Где ты?

Аккорды Пилот - Где ты?


Вступление:

G A#6
e|-------3-------|-------3-------|
H|----------3----|----------3----|
G|----0--------0-|----0--------0-|
D|---------------|---------------|
A|---------------|-1-------------|
E|-3-------------|---------------|

C/9 D#+7
e|-------3-------|-----------------3-------|
H|----------3----|-----------3--------3----|
G|----0--------0-|--------0-----0--------0-|
D|---------------|-0h--1-------------------|
A|-3-------------|-------------------------|
E|---------------|-------------------------|

Вступление:

G G A#6 C/9 D#+7
G G A#6 C/9 D#+7
G A#6 C/9 D#+7
G A#6 C/9 D#+7


G A#6
Где ты, когда по скрученным венам
C/9 D#+7
Растекается холодная упрямая смерть?
Где ты, когда сижу я на кухне
И мечтаю отсюда далеко улететь?
Где ты, когда колючим мокрым снегом
Заносит руки по локоть в снег?
Глаза смеются,
Ветер, занося в них только серый пепел тяжелый, как слеза...

Проигрыш:

G A#6 C/9 D#+7
G A#6 C/9 D#+7


Где ты, когда никак не согреться
В холодной постели с черно-белыми снами?
Где ты, когда хожу я один
По многолюдным квартирам проходными дворами?
Где ты, когда встречаются люди
С пустыми глазами и фальшивой улыбкой
Где хочется в небо серебряной птицей,
Но все также ползешь по дороге улиткой?

Проигрыш:

G5 A#5 C5 C5

G5 A#5 C5
Где ты?!

G A#6 C/9 D#+7
G A#6 C/9 D#+7



Другие новости по теме:

  • Аккорды Пилот - Джаз
  • Аккорды Пилот - 7 часов утра
  • Аккорды Пилот - Город
  • Аккорды Ноль - Когда проснется Бах
  • Аккорды Кино - Когда твоя девушка больна

  •  
     
     

    Популярные статьи

     
    Русский рок от "А" до "Я". 2010