скачать рок Русский рок от А до Я скачать рок
   
 
 
Навигация
Главная Истории групп Рок-библиотека Рок-календарь Рок-юмор mp3 Музыкальный софт Интересные ссылки Обратная связь Благодарности

Аккорды
А Б В Г Д Е
Ж З И К Л М
Н О П Р С Т
У Ф Х Ч Ш Ы
*
Э Ю Я 0-9
*

Таблица аккордов


GTP
А Б В Г Д Е
Ж З И К Л М
Н О П Р С Т
У Ф Х Ч Ш Ы
*
Э Ю Я 0-9
*

F.A.Q. по Guitar Pro 4


Опрос
Как давно вы слушаете русский рок?

 
Немного рекламы
 

 
Аккорды Пилот - 7 часов утра

Аккорды Пилот - 7 часов утра


Вступление:

Hm
D|----------4-----0--------|----------4-----0--------|
A|-2-----2-----------0-(0)-|-2-----2-----------0-(0)-|
E|-------------------------|-------------------------|

G F#
D|-------------------------|-------------------------|
A|----------5-----0--------|----------4-----0--------|
E|-3-----3-----------0-(0)-|-2-----2-----------0-----|

Hm
D|----------4-----0--------|-------4--5-----4--0-----|
A|-2-----2-----------0-(0)-|-2-------------------(0)-|
E|-------------------------|-------------------------|

G F#
D|-------------------------|-------------------------|
A|----------5-----0--------|----------4-----0----(0)-|
E|-3-----3-----------0-(0)-|-2-----2-----------0-----|

Hm
D|----------4-----0--------|----------4-----0--------|
A|-2-----2-----------0-(0)-|-2-----2-----------0-(0)-|
E|-------------------------|-------------------------|

G F#
D|-------------------------|-------------------------|
A|----------5-----0--------|----------4-----0--------|
E|-3-----3-----------0-(0)-|-2-----2-----------0-----|

Hm
D|----------4-----0--------|-------4--5-----4--0-----|
A|-2-----2-----------0-(0)-|-2-------------------(0)-|
E|-------------------------|-------------------------|

G F#
D|-------------------------|-------4--5--------------|
A|----------5-----0--------|-------------------------|
E|-3-----3-----------0-(0)-|-2-----------------------|

Hm C F#
Мимо окон чужих сам не свой,
Hm C F#
Ветер в шею, по льду иду домой.
Hm C F#
Подскользнусь, упаду, под деревьями оставлю
Hm G
Свой злой смех,
Em F# Hm G
Все давно хотели, чтобы я ушел от всех.
Em F# Hm E
Вот и прилетела с красным пером стрела,
C#m F# Hm
Ткнула в грудь, не промазала.

Знаю, сила моя всегда со мной,
В кармане ключ от двери золотой.
Напьюсь! Сяду в вагон,
И поедет поезд далеко,
Где кто-то также смотрит
На мир в свое окно,
И не может вспомнить
Насколько память зла!
Все забрала и на ходу спрыгнула.

Проигрыш:

Hm G Em F#
Hm G Em F#
Hm G Em F#
Hm G Em F#


Собери в мешок все что есть.
Можем на дорожку присесть.
7 часов утра - все спят,
Мы с тобой уходим,
В спину нам свистят
И кидают камни.
Забудут и простят,
Заколотят двери
И вырастет трава,
Через час скошенная.

Проигрыш:

Hm G Em F#
Hm G Em F#
Hm G Em F#
Hm G Em F#


Hm
D|----------4-----0--------|
A|-2-----2-----------0-(0)-|
E|-------------------------|

G F#
D|-------------------------|-------------------------|
A|----------5-----0--------|----------4-----0--------|
E|-3-----3-----------0-(0)-|-2-----2-----------0-----|

Hm
D|----------4-----0--------|-------4--5-----4--0-----|
A|-2-----2-----------0-(0)-|-2-------------------(0)-|
E|-------------------------|-------------------------|

G F#
D|-------------------------|-------------------------|
A|----------5-----0--------|----------4-----0----(0)-|
E|-3-----3-----------0-(0)-|-2-----2-----------0-----|


Другие новости по теме:

  • Аккорды Пилот - Джаз
  • Пилот - Концерт в Кирове скачать mp3
  • Аккорды Пилот - Город
  • Аккорды Пилот - Где ты?
  • Аккорды Кино - Видели ночь

  •  
     
     
    Популярные статьи
  • Танцы Минус - Три
  • Территория Отчуждения - Брать живьём!
  • Дельфин - 97 01
  • 5'nizza - КУ
  • Станционный Смотритель - СтереоС
  • Фаэтон - Знак проклятья

  •  
    Русский рок от "А" до "Я". 2010-2017