скачать рок Русский рок от А до Я скачать рок
   
 
 
Навигация
Главная Истории групп Рок-библиотека Рок-календарь Рок-юмор mp3 Музыкальный софт Интересные ссылки Обратная связь Благодарности

Аккорды
А Б В Г Д Е
Ж З И К Л М
Н О П Р С Т
У Ф Х Ч Ш Ы
*
Э Ю Я 0-9
*

Таблица аккордов


GTP
А Б В Г Д Е
Ж З И К Л М
Н О П Р С Т
У Ф Х Ч Ш Ы
*
Э Ю Я 0-9
*

F.A.Q. по Guitar Pro 4


Опрос
Как давно вы слушаете русский рок?

 
Немного рекламы
 

 
Аккорды Кино - Когда твоя девушка больна

Аккорды Кино - Когда твоя девушка больна


Вступление:

G D G D
G D G D


C D G Hm Em D
e|------3-|-2-0-----|---------|-------|
H|--1-1---|-----3-1-|-0-----0-|-------|
G|--------|---------|-----2---|-0-----|
D|--------|---------|---------|-------|
A|--------|---------|---------|-------|
E|--------|---------|---------|-------|

C D G Hm Em D
e|------0-|---------|---------|-0-----|
H|--1-1---|-3-1-0---|-0-----0-|-------|
G|--------|-------2-|-----2---|-------|
D|--------|---------|---------|-------|
A|--------|---------|---------|-------|
E|--------|---------|---------|-------|

C D G
e|-3-----2-----0---|-2-----3-----5-|-3----|
H|-----1-----1-----|-----3-----3---|-0----|
G|---0-----0-----0-|---2-----2-----|-0----|
D|-----------------|---------------|------|
A|-----------------|---------------|------|
E|-----------------|---------------|-3----|

D G D G D G D

G Em C D
День как день, только ты почему-то грустишь,
G Em C D
И вокруг все поют, только ты один молчишь,
G Em C D
Потерял аппетит и не хочешь сходить в кино,
G Em C D
Ты идёшь в магазин, чтобы купить вино.

Припев:

C D
Солнце светит и растёт трава,
G Em
Но тебе она не нужна.
C D
Всё не так и всё не то
G Em C D
Когда твоя девушка больна. М-м-м-м.
G Em C D
Когда твоя девушка больна. М-м-м-м.
G D G D G D G D
Когда больна.

G Em C D
Ты идёшь в магазин, головою поник,
G Em C D
Как будто иссяк чистый горный родник.
G Em C D
Она где-то лежит, ест мёд и пьёт аспирин,
G Em C D
И вот ты идёшь на вечеринку один.

Припев:

C D
Солнце светит и растёт трава,
G Em
Но тебе она не нужна.
C D
Всё не так и всё не то
G Em
Когда твоя девушка больна,
C D
На вечеринку один
G Em C D
Когда твоя девушка больна. М-м-м-м.
G Em C D
Когда твоя девушка больна.

Проигрыш:

G Hm Em D C D G D G D G D G D C D G Hm Em D C D G



Другие новости по теме:

  • Кино - Неизвестные записи. Диск 2. Квартирник. Ленинград. 1988 год скачать mp3
  • Кино - Неизвестные записи. Диск 1. Акустика. Таллин. 1990 год скачать mp3
  • Легенды русского рока - Кино. Выпуск 2 скачать mp3
  • Кино - Последние записи скачать mp3
  • Кино - Чёрный альбом скачать mp3

  •  
     
     
    Популярные статьи

     
    Русский рок от "А" до "Я". 2010-2017