скачать рок Русский рок от А до Я скачать рок
   
 
 
Навигация
Главная Истории групп Рок-библиотека Рок-календарь Рок-юмор mp3 Музыкальный софт Интересные ссылки Обратная связь Благодарности

Аккорды
А Б В Г Д Е
Ж З И К Л М
Н О П Р С Т
У Ф Х Ч Ш Ы
*
Э Ю Я 0-9
*

Таблица аккордов


GTP
А Б В Г Д Е
Ж З И К Л М
Н О П Р С Т
У Ф Х Ч Ш Ы
*
Э Ю Я 0-9
*

F.A.Q. по Guitar Pro 4


Опрос
Как давно вы слушаете русский рок?

 
Немного рекламы
 

 
Аккорды Чиж & Co - Перекресток

Аккорды Чиж & Co - Перекресток


Проигрыш:

v - vibrato
/ - палец быстро скользит на другой лад

e|--------------5-7v---7-5v--------------------------5-7v------|
H|--0-5-7-8-7-8---------------8-5v-------0-5-7-8-7-8-----------|
G|-------------------------------------------------------------|
D|-------------------------------------------------------------|
A|-------------------------------------------------------------|
E|-------------------------------------------------------------|

e|-7/10-10-10v-9-8-7v-8-7--------------0-7-5-----7-6-5v---8-5v-|
H|------------------------8-5v-8-7-6v-5------7-8---------------|
G|-------------------------------------------------------------|
D|-------------------------------------------------------------|
A|-------------------------------------------------------------|
E|-------------------------------------------------------------|

Dm(V) A(V) Dm(V)
Ты ушла рано утром, чуть позже шести,
B(VI) A(V)
Ты ушла рано утром, где-то чуть позже шести.
Dm(V) D7(V) Gm(III)
Бесшумно оделась, посмотрев на часы,
Dm(V) A(V) Dm(V)
На пачке LM'а нацарапав "прости".

На подушке осталась пара длинных волос,
На подушке осталась пара твоих светлых волос.
И почти машинально (что ты скажешь, басист?),
Я намотал их на палец (я хотел узнать имя) - получилось "икс".

Кому жизнь - буги-вуги, а кому - полный бред,
Кому жизнь - буги-вуги, ну а мне - полный бред,
Недопитое пиво, недобитый комар,
Недосмотренный сон, незаметный удар.

Я искал тебя здесь и там, я думал - свихнусь,
Я не нашел тебя ни здесь, и не там, и подумал - свихнусь,
О гитара, и струны, священный союз,
Когда кидает любовь, начинается блюз.

Соло!

Ты ушла рано утром, когда я еще спал,
Ты ушла рано утром, когда я еще спал,
Вечный мой перекресток, где минус, где плюс?
Когда уходит любовь, остается блюз,
Когда уходит любовь, остается блюз.

Соло!

e|-10--7------------7-|
H|-------10--8--10----|
G|--------------------|
D|--------------------|
A|--------------------|
E|--------------------|

Вступительный проигрыш:

Am
e|---0---0---0-|----0----0---0-|----------------|0---------0-----|
H|---1---1---1-|----1----1---1-|------0-1-0-1-3-|----1-------3-1-|
G|---2---2---2-|----2----2---2-|----2-----------|----2-----------|
D|---------2---|-----------2---|--2-------------|----------------|
A|-0---3-------|0-----3--------|0---------------|0-----3---------|
E|-------------|---------------|----------------|----------------|

E7 Am
e|-------0---0-|--0---0---0-|----------------|0---------3-3-3----|
H|-3-----3---3-|--1---1---1-|------0-1-0-1-3-|----1--------------|
G|---1---1---1-|--2---2---2-|----2-----------|----2--------------|
D|---2-----2---|--------2---|--2-------------|-------------------|
A|-----2-------|0---3-------|0---------------|0-----3------------|
E|-0-----------|------------|----------------|-------------------|

F9 E7 Am
e|---3--3-2-1-0-|--0---0---0-|----0-----0-3-0-|------------------|
H|---1--1-------|--3---3---3-|----3-----3-----|1------------1----|
G|---2--2-------|--1---1---1-|----1-----1-----|--2--------2------|
D|--------------|--------2---|----------------|---------2--------|
A|-3------------|----2-------|-------2--------|0----3------------|
E|--------------|0-----------|0---------------|------------------|

A7 Dm Am
e|-----------3-|1--------1---1-|----1-----3-1---|0---------0-----|
H|-2-------2---|----3----3---3-|----3---------3-|----1-------3-1-|
G|---0---0-----|----2------2---|----------------|----2-----------|
D|-----2-------|0-----3--------|0-----3---------|----------------|
A|-0-----------|---------------|----------------|0-----3---------|
E|-------------|---------------|----------------|----------------|

E7 Am
e|-----------0---0-|-----------------|-5-
H|-3---------3---3-|-----1-----1-----|-5-
G|-----1-----1---1-|-----2-----2-----|-5-
D|-----2-------2---|-------------2---|---
A|-------2---------|-0-----3---------|-0-
E|-0---------------|-----------------|---


Другие новости по теме:

  • Аккорды Уматурман - Ты ушла
  • Аккорды Звуки Му - Шуба дуба блюз
  • Аккорды Зоопарк - Буги-вуги
  • Аккорды Смысловые Галлюцинации - Утром
  • Аккорды Сплин - Приходи

  •  
     
     
    Популярные статьи
  • Танцы Минус - Три
  • Территория Отчуждения - Брать живьём!
  • Дельфин - 97 01
  • 5'nizza - КУ
  • Станционный Смотритель - СтереоС
  • Фаэтон - Знак проклятья

  •  
    Русский рок от "А" до "Я". 2010-2017