скачать рок Русский рок от А до Я скачать рок
   
 
 
Навигация
Главная Истории групп Рок-библиотека Рок-календарь Рок-юмор mp3 Музыкальный софт Интересные ссылки Обратная связь Благодарности

Аккорды
А Б В Г Д Е
Ж З И К Л М
Н О П Р С Т
У Ф Х Ч Ш Ы
*
Э Ю Я 0-9
*

Таблица аккордов


GTP
А Б В Г Д Е
Ж З И К Л М
Н О П Р С Т
У Ф Х Ч Ш Ы
*
Э Ю Я 0-9
*

F.A.Q. по Guitar Pro 4


Опрос
Как давно вы слушаете русский рок?

 
Немного рекламы
 

 
Аккорды Сплин - Приходи

Аккорды Сплин - Приходи


Am
Целым был и был разбитым,
Был живым и был убитым,
Чистой был водой, был ядом,
Был зеленым виноградом.

G
Спать ложился рано утром,
F Am
Вечерами все звонил кому-то.

Был безумным, был спокойным,
Подсудимым и конвойным,
Капитаном и матросом
С очень странной папиросой.

Спать ложился рано утром,
Вечерами все звонил кому-то.

G E
Ночь чернеет впереди,
Свет гаси и приходи.
Ночь чернеет впереди,
E7
Свет гаси и приходи...

Guitar 1: Am

e|-----------------|------------------|
B|-----------------|------------------|
G|-----------------|------------------|
D|2-0-2-0-2/32-0---|------------------|
A|-----------------|-3-2-3-2-3/53-2---|
E|-----------------|------------------|

Guitar 1: G F Am

e|------------------------|-------------------------------|
B|------------------------|-------------------------------|
G|------------------------|--------------2-2-2------------|
D|--0-0-0--------0-2-2-0--|------------------------2------|
A|------ -10--------------|-3-2-3-0--------------3------0-|
E|--------(3)-------------|-------------------------------|

Ночь чернеет впереди,
Свет гаси и приходи.
Ночь чернеет впереди,
Свет гаси и приходи...

Am
Целым был и был разбитым,
Был живым и был убитым,
Чистой был водой, был ядом,
Был зеленым виноградом.

G
Спать ложился рано утром,
F Am
Вечерами все звонил кому-то,
Вечерами все звонил кому-то...
Вечерами все звонил - кому?


Другие новости по теме:

  • Сплин - Grand collection скачать mp3
  • Аккорды Конец Фильма - Ночь Одиночество
  • Сплин - Гранатовый альбом скачать mp3
  • Аккорды Чиж & Co - Перекресток
  • Аккорды Кино - Спокойная ночь

  •  
     
     
    Популярные статьи

     
    Русский рок от "А" до "Я". 2010-2017