скачать рок Русский рок от А до Я скачать рок
   
 
 
Навигация
Главная Истории групп Рок-библиотека Рок-календарь Рок-юмор mp3 Музыкальный софт Интересные ссылки Обратная связь Благодарности

Аккорды
А Б В Г Д Е
Ж З И К Л М
Н О П Р С Т
У Ф Х Ч Ш Ы
*
Э Ю Я 0-9
*

Таблица аккордов


GTP
А Б В Г Д Е
Ж З И К Л М
Н О П Р С Т
У Ф Х Ч Ш Ы
*
Э Ю Я 0-9
*

F.A.Q. по Guitar Pro 4


Опрос
Как давно вы слушаете русский рок?

 
Немного рекламы
 

 
Аккорды Звуки Му - Шуба дуба блюз

Аккорды Звуки Му - Шуба дуба блюз


Вступление: H A7 E

e|----------------------------|
H|----------------------------|
G|----------------------------|
D|----------------------------|
A|-------2---2-1-0------------|
E|--0-3---0--------3-3-5-2-0--|

Проснулся я утром
Часов в пять.
И сразу понял:
Ты ушла от меня.

Ну и что!
Ну и что!
Что ты ушла от меня.

Припев:

e|------------------------------------------------------------------|
H|------------------------------------------------------------------|
G|------------------------------------------------------------------|
D|------------------------------------------------------------------|
A|--2--2-5--5-2--0--0-3--3-0--2-1-0------2-----2-1-0--2-2-2-5-2-0-2-|
E|-----------------------------------0-3---0------------------------|

Все равно опять напьюсь!
Шуба дуба блюз!

Проснулся я днем
Часа в два,
И сразу понял:
Ты ушла от меня.

Ну и что!
Ну и что! Что ты ушла от меня.

Припев:

Все равно опять напьюсь!
Шуба дуба блюз!

Проснулся я ночью
Часа в три,
И сразу понял:
Ты ушла от меня.

Ну и что!
Ну и что! Что ты ушла от меня,
Все равно опять напьюсь!

Припев:

Шуба дуба блюз!
Подумал я: "Блюз! Блюз..."


Другие новости по теме:

  • Легенды русского рока - Звуки Му скачать mp3
  • Аккорды Уматурман - Ты ушла
  • Аккорды Декабрь - Ушла во мрак
  • Звуки Му - Простые вещи CD 1 скачать mp3
  • Аккорды Чиж & Co - Перекресток

  •  
     
     
    Популярные статьи
  • Пилот - Двадцатничек!
  • Brutto - Рокі
  • 7000$ - Путь слабака или книга лишнего человека
  • Вадим Самойлов - На Берлин (Single)
  • КняZz - Узники долины снов
  • Зоя Ященко и группа Белая Гвардия - Венеция
  • Lumen - Хроника бешеных дней
  • Легион - Двойная звезда

  •  
    Русский рок от "А" до "Я". 2010-2017