скачать рок Русский рок от А до Я скачать рок
   
 
 
Навигация
Главная Истории групп Рок-библиотека Рок-календарь Рок-юмор mp3 Музыкальный софт Интересные ссылки Обратная связь Благодарности

Аккорды
А Б В Г Д Е
Ж З И К Л М
Н О П Р С Т
У Ф Х Ч Ш Ы
*
Э Ю Я 0-9
*

Таблица аккордов


GTP
А Б В Г Д Е
Ж З И К Л М
Н О П Р С Т
У Ф Х Ч Ш Ы
*
Э Ю Я 0-9
*

F.A.Q. по Guitar Pro 4


Опрос
Как давно вы слушаете русский рок?

 
Немного рекламы
 

 
Аккорды Король и Шут - Воспоминания о былой любви

Аккорды Король и Шут - Воспоминания о былой любви


Вступление:

e|--------0-2-|
H|--0-1-3-----|
G|0-----------|
D|0-----------|
A|------------|
E|------------|

Em Am
e|--3-----2h0---------------------0--|
H|----0---------0---1---------1p3----|
G|------0-----0---0---2---0p2--------|
D|----------------------2------------|
A|------------------0----------------|
E|--0--------------------------------|

D G
e|-2-----2p3h2---0-------------------|
H|---3---------3---0-3-----0h1---3---|
G|-----2---------------0-------0---0-|
D|-0---------------------0-----------|
A|-----------------------------------|
E|-------------------3---------------|

C A
e|--0--------------------------------|
H|----1---3p1---0---1-----0----------|
G|------0-----0---0---2-----2---0----|
D|----------------------2-----2---2--|
A|--3---------------0----------------|
E|-----------------------------------|

H7
e|--2--------2-----------2h3p2--(2)-|
H|-----0--------0-----0-------------|
G|--------2--------2---------------0|
D|---------------------------------0|
A|--2-------------------------------|
E|----------------------------------|

Em Am D G/Hm
Дремлет за горой, мрачный замок мой.
C Am H
Душу мучает порой, царящий в нем покой.
Я своих фантазий страждущий герой,
А любви моей живой все образы со мной.

Припев:

Em Am D G/Hm C
Я часто вижу страх в смотрящих на меня глазах.
H Am D G/Hm
Им суждено уснуть в моих стенах,
C Am
Застыть в моих мирах.
Em Am D G/Hm C
Но сердце от любви горит, моя душа болит.
H Am D G/Hm
И восковых фигур прекрасен вид -
C Am H
Покой везде царит!

Я их приводил в свой прекрасный дом.
Их вином поил, и развлекались мы потом.
Иногда у них легкий был испуг,
От прикосновений к нежной шее крепких рук.

Припев.

Вот несет одна мне свои цветы,
Вот стоит другая, погруженная в мечты.
Я пытался их до смерти рассмешить,
Но пришлось, как в старой сказке, просто задушить!

Припев.


Другие новости по теме:

  • Аккорды Юта - Колыбельная
  • Король и Шут - Как в старой сказке скачать mp3
  • Аккорды Король и Шут - Гимн шута
  • Аккорды Танцы минус - 10 капель
  • Аккорды БИ-2 - Сердце

  •  
     
     
    Популярные статьи
  • 7Б - Солнцу решать
  • СерьГа - Приметы
  • Вадим Самойлов - Слова закончились (Single)
  • Сурганова и Оркестр - Парижская акустика
  • The Matrixx - Субкоманданте (Single)
  • Мураками - Ипи (EP)
  • Ольга Арефьева и Ковчег - Ангел и девочка
  • Павел Кашин - Талисман

  •  
    Русский рок от "А" до "Я". 2010-2017