скачать рок Русский рок от А до Я скачать рок
   
 
 
Навигация
Главная Истории групп Рок-библиотека Рок-календарь Рок-юмор mp3 Музыкальный софт Интересные ссылки Обратная связь Благодарности

Аккорды
А Б В Г Д Е
Ж З И К Л М
Н О П Р С Т
У Ф Х Ч Ш Ы
*
Э Ю Я 0-9
*

Таблица аккордов


GTP
А Б В Г Д Е
Ж З И К Л М
Н О П Р С Т
У Ф Х Ч Ш Ы
*
Э Ю Я 0-9
*

F.A.Q. по Guitar Pro 4


Опрос
Как давно вы слушаете русский рок?

 
Немного рекламы
 

 
Аккорды БИ-2 - Сердце

Аккорды БИ-2 - Сердце


Соло:

e|---------------------------------5-5-----7-7---------|
H|-6-6-5-5---------6-6-5-5-----------------------------|
G|---------7-7-5-5---------7-7-5-5-----5-5-----5-5-7-9-|
D|-----------------------------------------------------|
A|-----------------------------------------------------|
E|-----------------------------------------------------|

e|-5-8-----10-7-8-5-5-8------10-7-8-5-5-7-10-12----|
H|-----6-5--------------6-5---------------------6-5|
G|-------------------------------------------------|
D|-------------------------------------------------|
A|-------------------------------------------------|
E|-------------------------------------------------|

Вступление

Am F C C/H Am


Am F
Из всех причин
Am F
Одна причина,
G
Что ты ушла
F Am F
С другим мужчиной.
Am F
И где покой,
Am F
Невозмутимо,
G F
Чужой женой
Am
Проходишь мимо...

C Dm Am
И где же они
Dm G
Чары любви
F
Зачем...

Припев:

Am Am/C Am Am/C Am
Ты разбиваешь мое сердце,
G F
Мы никогда не будем вместе...

Проигрыш:

Am G F
Am G F


К чему стихи,
Я погибаю.
И ничего
Не понимаю.
Хороших нет
Воспоминаний,
Таков сюжет
Моих страданий.


Другие новости по теме:

  • Аккорды Найк Борзов - Одна она
  • Аккорды Кукрыниксы - Звезда
  • Аккорды Пикник - Сердце бьётся на три четверти
  • Аккорды Король и Шут - Воспоминания о былой любви
  • Аккорды Наутилус Помпилиус - Большое сердце

  •  
     
     
    Популярные статьи

     
    Русский рок от "А" до "Я". 2010-2017