скачать рок Русский рок от А до Я скачать рок
   
 
 
Навигация
Главная Истории групп Рок-библиотека Рок-календарь Рок-юмор mp3 Музыкальный софт Интересные ссылки Обратная связь Благодарности

Аккорды
А Б В Г Д Е
Ж З И К Л М
Н О П Р С Т
У Ф Х Ч Ш Ы
*
Э Ю Я 0-9
*

Таблица аккордов


GTP
А Б В Г Д Е
Ж З И К Л М
Н О П Р С Т
У Ф Х Ч Ш Ы
*
Э Ю Я 0-9
*

F.A.Q. по Guitar Pro 4


Опрос
Как давно вы слушаете русский рок?

 
Немного рекламы
 

 
Аккорды Король и Шут - Гимн шута

Аккорды Король и Шут - Гимн шута


Бас:

D|----2---2-----2-2-2-0-2-2-0-------2-----|
A|--------------------------------2-------|
E|0-0---0---0-0---------------0-4---------|

Вступление:

H|-------------------------------0--------|
G|2---------------------------2----1------|
D|--4-2---2--4-2------------2--------4-2--|
A|------4--------4-0-4--0-4---------------|

H|-------------------------------0-----0--|
G|2---------------------------2----1------|
D|--4-2---2--4-2------------2--------4----|
A|------4--------4-0-4--0-4---------------|

e|----------------------0-----------------|
H|2-2-2-0-2--2-2-2-0-2----3-2-3--2-0------|
G|-----------------------------------2-1--|

e|----------------------0-----------------|
H|2-2-2-0-2--2-2-2-0-2----3-2-3--2-0-----2|
G|-----------------------------------2-1--|

A
Терпеньем я не наделен,
E D
И мне все лучше, да мне все лучше,
A D
Я удивлен!
A D
Я удивлен!

A
Судьба, в которую влюблен,
E D
Дает мне право, смеяться даже
A D
Над королем!
A E
Над королем!

D A
Стать дураком
D A
Мне здесь пришлось,
D A E
Хотя я вижу всех насквозь.

Припев:

A F#m
Искренне прошу, смейтесь надо мной,
D E
Если это вам поможет.
A F#m
Да я с виду шут, но в душе король,
D E
И никто как я не может.

Эй, вы, придворная толпа
Я вас не вижу, я вас не слышу,
Я отрешен!
Я отрешен!

Меня готовы, как клопа,
Топтать ногами, и это значит
Мой час пришел!
Мой час пришел!

Открою вам
Один секрет
Вельмож к несчастью честных нет.

Припев.

Я всех высмеивать вокруг
Имею право, и моя слава
Всегда со мной!
Всегда со мной!

Пускай все чаще угрожают
Мне расправой, но я в драках
Хорош собой!
Хорош собой!

Как голова
Ты горяча,
Не стань трофеем палача.

Припев.

Проигрыш:

e|--0----------0-----------------------------|
H|----3-232------3-232----3-2-020----3-2-020-|
G|2----------2-------------------------------|
D|----------------------2----------2---------|


Другие новости по теме:

  • Аккорды Король и Шут - Некромант
  • Аккорды Lumen - Беги
  • Аккорды Король и Шут - Следи за собой
  • Аккорды Торба-на-Круче - Поговори со мной
  • Аккорды Король и Шут - Воспоминания о былой любви

  •  
     
     
    Популярные статьи
  • 7Б - Солнцу решать
  • СерьГа - Приметы
  • Вадим Самойлов - Слова закончились (Single)
  • Сурганова и Оркестр - Парижская акустика
  • The Matrixx - Субкоманданте (Single)
  • Мураками - Ипи (EP)
  • Ольга Арефьева и Ковчег - Ангел и девочка
  • Павел Кашин - Талисман

  •  
    Русский рок от "А" до "Я". 2010-2017