скачать рок Русский рок от А до Я скачать рок
   
 
 
Навигация
Главная Истории групп Рок-библиотека Рок-календарь Рок-юмор mp3 Музыкальный софт Интересные ссылки Обратная связь Благодарности

Аккорды
А Б В Г Д Е
Ж З И К Л М
Н О П Р С Т
У Ф Х Ч Ш Ы
*
Э Ю Я 0-9
*

Таблица аккордов


GTP
А Б В Г Д Е
Ж З И К Л М
Н О П Р С Т
У Ф Х Ч Ш Ы
*
Э Ю Я 0-9
*

F.A.Q. по Guitar Pro 4


Опрос
Как давно вы слушаете русский рок?

 
Немного рекламы
 

 
Аккорды Ария - Без тебя

Аккорды Ария - Без тебя


e|-3-----3--2-----2--0-----0--2-----2-|
H|---0--------0--------1--------3-----|
G|-----0--------0--------0--------2---|
D|-2-----2--0-----0-----------0-----0-|
A|-------------------3-----3----------|
E|------------------------------------|

e|-3-----3--7-5-3-5-3--2-----2--5-3-2-3-2--0-----0--0-----0--2-----2-|
H|---0-------------------0-------------------1--------1--------3-----|
G|-----0-------------------0-------------------0--------0--------2---|
D|-2-----2-------------0-----0-------------------------------0-----0-|
A|-----------------------------------------3-----3--3-----3----------|
E|-------------------------------------------------------------------|

Снова брошен в окна лунный свет,
Дом мой сонный серебром одет.
Mм... Mм... Mм...

Лунной кисти не достичь глубин
Эту бездну знаю я один.
Mм... Mм... Mм...

Припев:

D Gm
Все, все как вчера,
Fm A A7
Но без тебя...

Ревность, жалость, словно заодно,
Птицей скорби падаю на дно.

Припев:


Другие новости по теме:

  • Аккорды Ария - Кто ты?
  • Аккорды Уматурман - Прасковья
  • Аккорды Последние танки в Париже - Знаю здесь
  • Аккорды Ленинград - Без тебя
  • Аккорды Маша и Медведи - Без тебя

  •  
     
     
    Популярные статьи
  • Виктор Цой и группа Кино - 55 (3CD)
  • Танцы Минус - Три
  • Дельфин - 97 01
  • Территория Отчуждения - Брать живьём!
  • 5'nizza - КУ
  • Velvet - Отчёт
  • Станционный Смотритель - СтереоС
  • Зимавсегда - Всеоружие
  • Фаэтон - Знак проклятья

  •  
    Русский рок от "А" до "Я". 2010-2017