скачать рок Русский рок от А до Я скачать рок
   
 
 
Навигация
Главная Истории групп Рок-библиотека Рок-календарь Рок-юмор mp3 Музыкальный софт Интересные ссылки Обратная связь Благодарности

Аккорды
А Б В Г Д Е
Ж З И К Л М
Н О П Р С Т
У Ф Х Ч Ш Ы
*
Э Ю Я 0-9
*

Таблица аккордов


GTP
А Б В Г Д Е
Ж З И К Л М
Н О П Р С Т
У Ф Х Ч Ш Ы
*
Э Ю Я 0-9
*

F.A.Q. по Guitar Pro 4


Опрос
Как давно вы слушаете русский рок?

 
Немного рекламы
 

 
Аккорды Ария - Кто ты?

Аккорды Ария - Кто ты?



Первый куплет играетя так:

e|--------------------------------------------------------------------|
H|--------------------------------------------------------------------|
G|-2-----0-----0-------------------2-----0-------0-7---5---7---5------|
D|---4-----2-----2-4-----24----2-----4-----2---2----------------------|
A|-------------------5-----3-----3-------------------0---0---0---0----|
E|-----0-----0---------0-----0---------0-----0------------------------|

e|-----------------------------------------------------------------0-------|
H|---------------------------------------0--------------------------0-0----|
G|-2-----0-----0-------------------2-------0-----0-7---5---4---2-----0-----|
D|---4-----2-----2-4-----24----2-----4---------2-----------------------452-|
A|-------------------5-----3-----3-----------------------------------------|
E|-----0-----0---------0-----0---------0-----0-------0---0---0---0---------|


e|-------------------------------------------------0-------------------|
H|-8-----7-----7---5-----4-----4---1-----4-------4---4-----------------|
G|---9-----8-----8---5-----5-----5---2-----5---5-----------------------|
D|-----------------------------------------------------5---5-4-2-1-----|
A|-----0-----0---------0-----0---------0-----0---------------------3-2-|
E|---------------------------------------------------------------------|


e|-------------------------------------------------0---3-----2-------------|
H|-8-----7-----7---5-----4-----4---1-----4-------4---4---5-----4-----------|
G|---9-----8-----8---5-----5-----5---2-----5---5-----------5---------------|
D|---------------------------------------------------------------5-4-------|
A|-----0-----0---------0-----0---------0-----0-----------------------3-2---|
E|-----------------------------------------------------------------------3-|


e|-----------------------------------------------------------------0-------|
H|---------------------------------------0--------------------------0-0----|
G|-2-----0-----0-------------------2-------0-----0-7---5---4---2-----0-----|
D|---4-----2-----2-4-----24----2-----4---------2-----------------------452-|
A|-------------------5-----3-----3-----------------------------------------|
E|-----0-----0---------0-----0---------0-----0-------0---0---0---0---------|

Снова в полночь слышу чей-то голос,
Шепчет имя, манит и зовет меня...
И белым туманом на стеклах чей-то вздох оставлен,
И гаснет вдруг пламя, хотя нет ветра...
Вижу тень я кто-то в черном у окна.

Припев:

C B Em G F#
Кто ты - наказанье или милость?

Кто ты? Отрекаться не спеши.

Может за душой моей явилась...
C A Em
Только нет души.

Проклят, брошен, словно камень с неба,
Страшно падать, только ждать еще страшней.
Все помнить и жаждать любви, но быть распятым ею,
И мчаться к безумью, услышав голос...
Ровно в полночь снова тень идет ко мне.

Припев.


Другие новости по теме:

  • Аккорды Ария - Не хочешь - не верь мне!
  • Аккорды Мёртвые Дельфины - На моей Луне
  • Аккорды 7Б - Молодые ветра
  • Аккорды Наутилус Пампилиус - Шар цвета хаки
  • Аккорды Lumen - Тень

  •  
     
     
    Популярные статьи
  • Виктор Цой и группа Кино - 55 (3CD)
  • Танцы Минус - Три
  • Дельфин - 97 01
  • Территория Отчуждения - Брать живьём!
  • 5'nizza - КУ
  • Velvet - Отчёт
  • Станционный Смотритель - СтереоС
  • Зимавсегда - Всеоружие
  • Фаэтон - Знак проклятья

  •  
    Русский рок от "А" до "Я". 2010-2017