скачать рок Русский рок от А до Я скачать рок
   
 
 
Навигация
Главная Истории групп Рок-библиотека Рок-календарь Рок-юмор mp3 Музыкальный софт Интересные ссылки Обратная связь Благодарности

Аккорды
А Б В Г Д Е
Ж З И К Л М
Н О П Р С Т
У Ф Х Ч Ш Ы
*
Э Ю Я 0-9
*

Таблица аккордов


GTP
А Б В Г Д Е
Ж З И К Л М
Н О П Р С Т
У Ф Х Ч Ш Ы
*
Э Ю Я 0-9
*

F.A.Q. по Guitar Pro 4


Опрос
Как давно вы слушаете русский рок?

 
Немного рекламы
 

 
Аккорды Мёртвые Дельфины - На моей Луне

Аккорды Мёртвые Дельфины - На моей Луне


e|-------1------------------------------|
B|-----3---3------------1-----------1/3-|
G|---2-------2---2----0---0------3------|
D|-0-----------0---------------3--------|
A|------------------3--------1----------|
E|--------------------------------------|

e|-------1-----------------------------|
B|-----3---3-------------3---------1/3-|
G|---2-------2---2-----3---------------|
D|-0-----------------3---------3-------|
A|---------------------------1---------|
E|-------------1---3-------------------|

e|-------0---------------3--------------------------1-|
B|-----3---3-----------1---1----------1--------1----3-|
G|---2-------2-------0-------0------3---3----2---2--3-|
D|-0-----------0------------------3--------3--------3-|
A|-----------------3-----------3--------------------1-|
E|--------------------------------------------------1-|

Припев:

e|-1---1---0---0------------|
B|---3---3---1---1----------|
G|--------------------------|

Dm C B (Hb)
Снег сможет меня согреть, ты помоги ему
Dm F C B (Hb)
Душу мою отпеть, здесь, некому будет...
Сном белым к тебе приду, в мысли твои войду,
Там для себя приют найду...

Припев:

Dm C
На моей луне я всегда один,
B (Hb) F
Разведу костер, посижу в тени,
Dm(IV) C(III)
На моей луне пропадаю я,
B (Hb) F
Сам себе король сам себе судья.

Свет слабым лучом в окно,
Сколько ему дано,
Мне уже все равно...
Но голос надежды,
Вновь машет своим крылом,
Падая вниз дождем,
И опять вхожу в твой дом.

Припев.

Блеск этих волшебных глаз,
Околдовал меня,
Буд-то бы в первый раз я их понимаю...
Смерть я обниму рукой,
И только с ней одной,
Я поделюсь своей мечтой...

Припев.


Другие новости по теме:

  • Аккорды Мёртвые Дельфины - Сны слепых
  • Аккорды Мёртвые Дельфины - Музыка в огне
  • Аккорды Мёртвые Дельфины - Моногамия
  • Аккорды Мёртвые Дельфины - Девственность
  • Мёртвые Дельфины - Одуванчики для канареек скачать mp3

  •  
     
     
    Популярные статьи
  • Дельфин - 97 01
  • Фаэтон - Знак проклятья

  •  
    Русский рок от "А" до "Я". 2010-2017