скачать рок Русский рок от А до Я скачать рок
   
 
 
Навигация
Главная Истории групп Рок-библиотека Рок-календарь Рок-юмор mp3 Музыкальный софт Интересные ссылки Обратная связь Благодарности

Аккорды
А Б В Г Д Е
Ж З И К Л М
Н О П Р С Т
У Ф Х Ч Ш Ы
*
Э Ю Я 0-9
*

Таблица аккордов


GTP
А Б В Г Д Е
Ж З И К Л М
Н О П Р С Т
У Ф Х Ч Ш Ы
*
Э Ю Я 0-9
*

F.A.Q. по Guitar Pro 4


Опрос
Как давно вы слушаете русский рок?

 
Немного рекламы
 

 
Аккорды Агата Кристи - Я буду там

Аккорды Агата Кристи - Я буду там


Вступление:

e|------------------------------------------------------------------|
H|------------------------------------------------------------------|
G|---------2-------------2-2------------------------------------0---|
D|-----0-0---4-------0-0-----4---4-4-2-2-0-------0----------------4-|
A|-2-2-----------2-2-----------------------4-3-----4-3---0-0-3-3----|
E|------------------------------------------------------------------|

e|-----------------------------3-3-2----10-9-7----|
H|---------------5-5-3-3-2-1-------------9-8------|
G|-----------1------------------------------------|
D|-----0-0-4--------------------------------------|
A|-2-2--------------------------------------------|
E|------------------------------------------------|

Проигрыш во время куплета:

e|----------------------|
H|----------------------|
G|------------------1---|
D|------2-4-------4-----|
A|--0-2-------0-2-------|
E|----------------------|

После куплета:

e|--------------------------------------------------------------------|
H|--------------------------------------------------------------------|
G|-------------2-2-----------------------------------0---------------1|
D|-4-------0-0-----4---4-4-2-2-0-----0-----------------4-------0-0-4--|
A|-----2-2-----------------------4-3---4-3---0-0-3-3-------2-2--------|
E|--------------------------------------------------------------------|

e|------3-2-----------3-3---10-9--7-7-7-------|
H|----3-----3-2-1---1--------9-8--------------|
G|--1-----------------------------------------|
D|--------------------------------------------|
A|--------------------------------------------|
E|--------------------------------------------|

Hm
До свидания, малыш,
Я упал, а ты летишь.
Dm
Ну и ладно, улетай
Am
В рай.

Hm
Ничего-ничего,
Мы увидимся еще.
Dm
Я и сам, я и сам,
F#
Назло врагам,
Hm
Буду там.


Другие новости по теме:

  • Чиж & Co - Гайдном буду! скачать mp3
  • Аккорды Земфира - Мачо
  • Аккорды Дельфин - Я буду жить
  • Рондо - Я буду помнить скачать mp3
  • Мумий Тролль - Иди, я буду (макси-сингл) скачать mp3

  •  
     
     
    Популярные статьи
  • Танцы Минус - Три
  • Дельфин - 97 01
  • Территория Отчуждения - Брать живьём!
  • 5'nizza - КУ
  • Станционный Смотритель - СтереоС
  • Фаэтон - Знак проклятья

  •  
    Русский рок от "А" до "Я". 2010-2017