скачать рок Русский рок от А до Я скачать рок
   
 
 
Навигация
Главная Истории групп Рок-библиотека Рок-календарь Рок-юмор mp3 Музыкальный софт Интересные ссылки Обратная связь Благодарности

Аккорды
А Б В Г Д Е
Ж З И К Л М
Н О П Р С Т
У Ф Х Ч Ш Ы
*
Э Ю Я 0-9
*

Таблица аккордов


GTP
А Б В Г Д Е
Ж З И К Л М
Н О П Р С Т
У Ф Х Ч Ш Ы
*
Э Ю Я 0-9
*

F.A.Q. по Guitar Pro 4


Опрос
Как давно вы слушаете русский рок?

 
Немного рекламы
 

 
Аккорды Земфира - Мачо

Аккорды Земфира - Мачо


Вступление:

e|------------------0--------------------------0-------------------------0---|
H|-------3------------3-----------0-------------3----------0--------------3--|
G|-----4------0---------0-------0-------0--------0-------0-------0---------0-|
D|---4-------------------------0-------------------------0-------------------|
A|-2--------3----3--------------------3-----3------------------3-----3-------|
E|---------------------------3-------------------------3---------------------|

e|--------------------------------|
H|--------------------------------|
G|---5---7---9---7----------------|
D|--------------------------------|
A|---3---5---7---5----------------|
E|--------------------------------|

Куплет:

e|--------------------0------------------------0-------------------------2-|
H|-------3--------------3----------0------------3---------3----------1-----|
G|-----4--------0---------0------0-------0-------0------4----------2-------|
D|---4--------------------------0-----------------------4---------2--------|
A|-2---------3-----3-------------------3----3--------2---------0-----------|
E|----------------------------3--------------------------------------------|

e|-----------------------------------|
H|------------3---------3-----------|
G|----------2---------0-------------|
D|--------0---------2---------------|
A|------0---------3-----------------|
E|-----------------------------------|

Hm C G
Позвони, и я буду ждать,
C Hm Am D C
Я буду знать, кому из нас верить.
Hm C G
Расскажи, куда идти,
C Hm Am D C
Зачем идти, если заперты двери.

Припев:

Am G Gm C7
Пьяный мачо лечит меня и плачет,
F A Gm
От того, что знает, как хорошо бывает.
Gm C
А-а-а-а.

Проводи, и я буду плыть,
Я буду стыть под слишком шумные воды.
Перестань, твои глаза,
Мои глаза, в них просто разные коды.

Припев.

Полюби, и мне осталось жить
Ровно девять слов, а после вечное солнце.
Проводи, и я буду плыть,
Если хватит крон и если память вернется.

Припев.


Другие новости по теме:

  • Аккорды Дельфин - Я буду жить
  • Аккорды Земфира - Кто?
  • Аккорды Чиж & Co - Менуэт
  • Аккорды Ночные снайперы - Актриса
  • Аккорды Танцы Минус - Твои глаза

  •  
     
     
    Популярные статьи
  • Дельфин - 97 01
  • Территория Отчуждения - Брать живьём!
  • Станционный Смотритель - СтереоС
  • Фаэтон - Знак проклятья

  •  
    Русский рок от "А" до "Я". 2010-2017