скачать рок Русский рок от А до Я скачать рок
   
 
 
Навигация
Главная Истории групп Рок-библиотека Рок-календарь Рок-юмор mp3 Музыкальный софт Интересные ссылки Обратная связь

Аккорды
А Б В Г Д Е
Ж З И К Л М
Н О П Р С Т
У Ф Х Ч Ш Ы
*
Э Ю Я 0-9
*

Таблица аккордов


GTP
А Б В Г Д Е
Ж З И К Л М
Н О П Р С Т
У Ф Х Ч Ш Ы
*
Э Ю Я 0-9
*

F.A.Q. по Guitar Pro 4


Опрос
Как давно вы слушаете русский рок?

 
Немного рекламы
 

 
Аккорды Земфира - Сигареты

Аккорды Земфира - Сигареты


Dm Cm G
Прячется вечер, пудрится звезда,
A A# C
И я тебе друг, а ты мне не то, что бы.
Чайные плечи из Ленинграда,
Дрогнули вдруг и замерли навсегда.

Припев:

F Fm9+7 Dm7
Если бы можно в сердце поглубже вклеить портреты,

e|-------1----------------1-----------------1--|
H|----1----------------1-----------------1-----|
G|---------------------------------------------|
D|-3----------------2-----------------0--------|

E G
И я на память оставлю свои сигареты.

e|---------------0----------------3--|
H|------------0----------------3-----|
G|-----------------------------------|
D|---------2----------------5--------|

Если бы можно в сердце поглубже вклеить портреты,
И я на память оставлю свои сигареты.

Плавится шоссе, искрятся стопы,
И я тебе друг, а ты мне не то, что бы.
Очередь в кассы, хмурые копы,
И я тебе друг, а ты мне ну, кто мне ты...

Припев.

e|--------1-----------1-----------1-----------1-----|
H|-----1-----1-----1-----1-----1-----1-----1-----1--|
G|--------------------------------------------------|
D|--3-----------3-----------2-----------2-----------|
A|--------------------------------------------------|
E|--------------------------------------------------|



Другие новости по теме:

  • Аккорды Сегодня Ночью - Кофе и сигареты
  • Сегодня ночью - Сигареты и кофе (demo) скачать mp3
  • Сегодня ночью - Кофе и сигареты скачать mp3
  • Аккорды Кино - Перемен!
  • Аккорды Юта - Далеко

  •  
     
     

    Популярные статьи

     
    Русский рок от "А" до "Я". 2010