скачать рок Русский рок от А до Я скачать рок
   
 
 
Навигация
Главная Истории групп Рок-библиотека Рок-календарь Рок-юмор mp3 Музыкальный софт Интересные ссылки Обратная связь Благодарности

Аккорды
А Б В Г Д Е
Ж З И К Л М
Н О П Р С Т
У Ф Х Ч Ш Ы
*
Э Ю Я 0-9
*

Таблица аккордов


GTP
А Б В Г Д Е
Ж З И К Л М
Н О П Р С Т
У Ф Х Ч Ш Ы
*
Э Ю Я 0-9
*

F.A.Q. по Guitar Pro 4


Опрос
Как давно вы слушаете русский рок?

 
Немного рекламы
 

 
Аккорды Кино - Перемен!

Аккорды Кино - Перемен!


Вступление:

Em Am
e|---------------------------------------------------------------------|
H|---------------------------------------------------------------------|
G|*--------------------------------------------------------------------|
D|*-------------------------------2------2------2------2------1------1-|
A|-2-2---------2-2--2---------2---0--0-0-0--0-0-0--0-0-0--0-0-0--0-0-0-|
E|-0-0-2^3-2^3-0-0--0-2^3-2^3-0----------------------------------------|

Em Am F# G
e|----------------------------------------------------------------------2--3-|
H|----------------------------------------------------------------------2--3-|
G|----------------------------------------------------------------------3--4*|
D|-----1------1----------------------------------2-2---------2-2--2-----4--5*|
A|-0-0-0--0-0-0---2-2---------2-2--2---------2---0-0-2^3-2^3-0-0--0-2-3-4--5-|
E|----------------0-0-2^3-2^3-0-0--0-2^3-2^3-0--------------------------2--3-|

Em F# G
e|-------------------------------------------2--3-|
H|-------------------------------------------2--3-|
G|-------------------------------------------3--4-|
D|-------------------------------------------4--5-|
A|-2------2------2------2------2------2------4--5-|
E|-0--0-0-0--0-0-0--0-0-0--0-0-0--0-0-0--0-0-2--3-|

Em
Вместо тепла - зелень стекла,
G
Вместо огня - дым,
D Em
Из сетки календаря выхвачен день.
Em
Красное солнце сгорает дотла,
G
День догорает с ним,
D
На пылающий город падает тень.

Am C D Em
e|-------0--------0-------2--------------------------------------------------|
H|-------1--------1-------3--------------------------------------------------|
G|----2--------0-------2-----------------------------------------------------|
D|--2----------------0-------2-2-2-2-2--0--2--0--2--4--5-5-5-5-5--4--5--4--5-|
A|-0---------3---------------------------------------------------------------|
E|---------------------------------------------------------------------------|

Am D Em
e|-------0---0-0-0-0-2--5------|
H|-------1---1-1-1-1-3--7------|
G|-----2-----2-2-2-2-2---------|
D|---2-------2-2-2-2-0---------|
A|-0---------0-0-0-0-----------|
E|-----------------------------|

Припев:

Am C D Em
Перемен! - требуют наши сердца.
Am C D Em
Перемен! - требуют наши глаза.
Am C
В нашем смехе и в наших слезах,
D Em
И в пульсации вен:
Am
"Перемен!
D Em
Мы ждем перемен!"

Электрический свет продолжает наш день,
И коробка от спичек пуста,
Но на кухне синим цветком горит газ.
Сигареты в руках, чай на столе - эта схема проста,
И больше нет ничего, все находится в нас.

Припев.

Мы не можем похвастаться мудростью глаз
И умелыми жестами рук,
Нам не нужно все это, чтобы друг друга понять.
Сигареты в руках, чай на столе - так замыкается круг,
И вдруг нам становится страшно что-то менять.

Припев.

Em Am
e|-----0-------0-------0-------0---------5-------5---------5-------5-|
H|-0-0---0-0-0---0-0-0---0-0-0---0-0-5-5---5-5-5---5-5-4-4---4-4-4---|
G|-------------------------------------------------------------------|
D|-------------------------------------------------------------------|
A|-------------------------------------------------------------------|
E|-------------------------------------------------------------------|

Em G
e|--------------------------------------------------------------------------|
H|--------------------------------------------------------------------------|
G|--------------------------------------------------------------------------|
D|-2-2-2-2-2--0--2--0--2---2-2-2-2-2--0--2--0--2--4--5-5-5-5-5---4--5--4--5-|
A|--------------------------------------------------------------------------|
E|--------------------------------------------------------------------------|

D
e|---------------------------------------------------------------------------|
H|---------------------------------------------------------------------------|
G|---------------------------------------------------------------------------|
D|-5-5-5-5-5--4--5--4--5--4--------------------------------------------------|
A|---------------------------5-5-5-5-5--4--5--4--5--5-5-5-5-5--4--5--4--5--4-|
E|---------------------------------------------------------------------------|

Em
e|----------------------------------------------------|
H|----------------------------------------------------|
G|----------------------------------------------------|
D|-2-2-2-2-2--0--2--0--2--4--5-5-5-5-5--4--5--4--5--4-|
A|----------------------------------------------------|
E|----------------------------------------------------|


Другие новости по теме:

  • Аккорды Кино - Ночь
  • Аккорды Юлия Чичерина - Ветер перемен
  • Аккорды Земфира - Сигареты
  • Аккорды Кино - В наших глазах
  • Аккорды Кино - Хочу перемен

  •  
     
     
    Популярные статьи
  • Чайф - Теория струн
  • Александр Балунов - Песни о любви и дружбе
  • Александр Иванов - Этой весной...
  • Адаптация - Radio Resistance
  • Владимир Кузьмин - Рокер-3. Закрытие сезона
  • Шмели - Мизантропия
  • Noize MC - Царь горы

  •  
    Русский рок от "А" до "Я". 2010-2017