скачать рок Русский рок от А до Я скачать рок
   
 
 
Навигация
Главная Истории групп Рок-библиотека Рок-календарь Рок-юмор mp3 Музыкальный софт Интересные ссылки Обратная связь Благодарности

Аккорды
А Б В Г Д Е
Ж З И К Л М
Н О П Р С Т
У Ф Х Ч Ш Ы
*
Э Ю Я 0-9
*

Таблица аккордов


GTP
А Б В Г Д Е
Ж З И К Л М
Н О П Р С Т
У Ф Х Ч Ш Ы
*
Э Ю Я 0-9
*

F.A.Q. по Guitar Pro 4


Опрос
Как давно вы слушаете русский рок?

 
Немного рекламы
 

 
Аккорды Сплин - Рики-тики-тави

Аккорды Сплин - Рики-тики-тави


Вступление:

e|------------------------------------------------|
B|------------------------------------------------|
G|------------------------------------------------|
D|---7---5-3-2---7------------7---5-3-2---7-------|
A|-5-----------5----7/8-----5-----------5---------|
E|----------------------5---------------------5-5-|

Dm A
Рики-тики,
Dm A
Рики-тики тави
На пороге
Нас оставит,
Dm A
На пороге не прокатит,
Он глядит из под кровати,
На сегодня видно хватит...

e|-------------------------------------------|
B|-------------------------------------------|
G|-------------------------------------------|
D|----7-----------5-3-2---------7-------5-3-2|
A|--5-------------------------5--------------|
E|-------------------------------------------|

e|----------------------|
B|----------------------|
G|----------------------|
D|------77-7------77-7--|
A|------55-5------55-5--|
E|----------------------|

Ты сказала,
Рики-тики-тави сдулся,
Что он видел,
Чем он думал...
Что ты мелишь кофемолка,
Он сбежал из книжной полки,
Он кричит из под обломков.
D5 A5
Рики-тики,
Рики-тики-тави
Никогда нас
Не оставит.
D5
Отключите все электрокофемолки,
Я сбежал из книжной полки,
(A5)
Я кричу из под обломков.

Рики-тики
Рики-тики-тави,
Рики-тики
Рики-тики-тави,
Рики-тики-тави...
Рики-тики-тави...


Другие новости по теме:

  • Хроноп - Холден Колфилд скачать mp3
  • Ольга Арефьева и группа "Ковчег" - Кон-Тики скачать mp3
  • Чартова Дюжина vol.3 скачать mp3
  • Сплин - 25 Кадр скачать mp3
  • Аккорды Сплин - Романс

  •  
     
     
    Популярные статьи
  • Танцы Минус - Три
  • Территория Отчуждения - Брать живьём!
  • Дельфин - 97 01
  • 5'nizza - КУ
  • Станционный Смотритель - СтереоС
  • Фаэтон - Знак проклятья

  •  
    Русский рок от "А" до "Я". 2010-2017