скачать рок Русский рок от А до Я скачать рок
   
 
 
Навигация
Главная Истории групп Рок-библиотека Рок-календарь Рок-юмор mp3 Музыкальный софт Интересные ссылки Обратная связь Благодарности

Аккорды
А Б В Г Д Е
Ж З И К Л М
Н О П Р С Т
У Ф Х Ч Ш Ы
*
Э Ю Я 0-9
*

Таблица аккордов


GTP
А Б В Г Д Е
Ж З И К Л М
Н О П Р С Т
У Ф Х Ч Ш Ы
*
Э Ю Я 0-9
*

F.A.Q. по Guitar Pro 4


Опрос
Как давно вы слушаете русский рок?

 
Немного рекламы
 

 
Аккорды Сплин - Романс

Аккорды Сплин - Романс


Dm/F Am
e|--------------------------|--------------------0-----|
B|-----------3--------3-----|----------0h1-------------|
G|--------2--------2-----2--|--------2-----2--------2--|
D|-----3--------3-----------|-----2-----------2--------|
A|--0-----------------------|--0-----------------------|
E|--------------------------|--------------------------|

Dm C
e|----------0h1-------1-----|--------------------0-----|
B|--------3--------3-----3--|----------0h1-------------|
G|-----2--------2-----------|--------0-----0--------0--|
D|--0-----------------------|-----2-----------2--------|
A|--------------------------|--3-----------------------|
E|--------------------------|--------------------------|

Dm C Am
e|-----------1--------------|--------------------0-----|
B|--------3--------------1--|----------0h1-------------|
G|-----2--------------0-----|--------2-----2--------2--|
D|--0--------------2--------|-----2-----------2--------|
A|--------------3-----------|--0-----------------------|
E|--------------------------|--------------------------|

И лампа не горит, и врут календари,
И если ты давно хотела что-то мне сказать,
То говори.

Любой обманчив звук. Страшнее тишина,
Когда в самый разгар веселья падает из рук
Бокал вина.

И чёрный кабинет, и ждёт в стволе патрон.
Так тихо, что я слышу, как идёт на глубине
Вагон метро.

На площади полки. Темно в конце строки.
И в телефонной трубке эти много лет спустя
Одни гудки.

И где-то хлопнет дверь, и дрогнут провода.
Привет! Мы будем счастливы теперь
И навсегда.

Привет! Мы будем счастливы теперь
И навсегда.


Другие новости по теме:

  • Сплин - Романс (сингл) скачать mp3
  • Сплин - 13 лет в рок-н-ролле скачать mp3
  • Аккорды Ночные снайперы - Стерх и лебедь
  • Аккорды Дельфин - Тишина
  • Аккорды Сплин - Пой мне ещё

  •  
     
     
    Популярные статьи
  • ДДТ - История звука
  • Lumen - Хроника бешеных дней
  • Легион - Двойная звезда
  • Мы вышли из кино. Трибьют Кино
  • Браво - Бравоспектива
  • Тараканы! - Larger Than… LIVE 25th Anniversary Show (2CD)
  • Слот - 15 (The Best Of)
  • Маша и Медведи - Мира война (Single)

  •  
    Русский рок от "А" до "Я". 2010-2017