скачать рок Русский рок от А до Я скачать рок
   
 
 
Навигация
Главная Истории групп Рок-библиотека Рок-календарь Рок-юмор mp3 Музыкальный софт Интересные ссылки Обратная связь Благодарности

Аккорды
А Б В Г Д Е
Ж З И К Л М
Н О П Р С Т
У Ф Х Ч Ш Ы
*
Э Ю Я 0-9
*

Таблица аккордов


GTP
А Б В Г Д Е
Ж З И К Л М
Н О П Р С Т
У Ф Х Ч Ш Ы
*
Э Ю Я 0-9
*

F.A.Q. по Guitar Pro 4


Опрос
Как давно вы слушаете русский рок?

 
Немного рекламы
 

 
Аккорды Сплин - Линия жизни

Аккорды Сплин - Линия жизни


Рифф 1:

e|---------------------------|
H|---------------------------|
G|9-9-11-9-12121212121212...-|
D|9-9-9--9-9-9-9-9-9-9-9-...-|
A|---------------------------|
E|---------------------------|

Рифф 2:

e|-------7---5---3--|
H|--0------0---0----|
G|------------------|
D|------------------|
A|------------------|
E|------------------|

Рифф 2а:

e|-------5---3---2--|
H|--0------0---0----|
G|------------------|
D|------------------|
A|------------------|
E|------------------|

Начало:

Рифф 1+Рифф 2

Рифф 1
Мы легли на дно,
Рифф 1
Мы зажгли огни,
Рифф 1 (и до конца строки играет последние ноты)
Во Вселенной только мы одни...

Рифф 3:

e|----------------------------------|
H|----------------------------------|
G|1111111111111111-1414141414141414-|
D|9-9-9-9-9-9-9-9--9-9-9-9-9-9-9-9--|
A|----------------------------------|
E|----------------------------------|

Рифф 3 + Рифф 2а
Гни свою линию...
Гни свою линию...
Гни свою линию...

Рифф 4:

e|---------------------------------|
H|---------------------------------|
G|12121212121212121212121212121212-|
D|9-9-9-9-9-9-9-9-9-9-9-9-9-9-9-9--|
A|---------------------------------|
E|---------------------------------|

Рифф 5:

e|-------------------------|
H|12-12-12-12-12-12-12-12--|
G|x--x--x--x--x--x--x--x---|
D|9--9--9--9--9--9--9--9---|
A|-------------------------|
E|-------------------------|

Рифф 4 + Em
Горят огни, сверкают звезды,
e|------7-----5------3----2-|
H|----0-----0------0----0---|

Рифф 3 + D B7
Все так сложно, все так просто,
e|------3----5----3----2----3---5-|
H|----0----0----0----0----0---0---|

Рифф 4 Em
Мы ушли в открытый Космос,
e|------7-----5------3----2-|
H|----0-----0------0----0---|

Рифф 3 D B7 G + рифф 5
В этом мире больше нечего ловить.
e|------3----5----3----2----3---5------7---5---7---5|
H|----0----0----0----0----0---0------0---0---0---0--|


Гни свою линию, горят а-
Гни свою линию, горят а-
Гни свою линию,
Горят огни.

Соло:

e|3-2-0-2-0---|3-2-0-2-7---|3-2-0-2-3-2-0---0|
H|------------|------------|--------------4--|
G|------------|------------|-----------------|

Все это повторяется еще раз, после чего:

e|0000000/33333333/55555555/88888888/|
H|-----------------------------------|
G|-----------------------------------|

e|/1010101010101010/1212121212121212\|
H|-----------------------------------|
G|-----------------------------------|

Мы легли на дно,
Мы зажгли огни,
Во Вселенной только мы одни,
Гни свою линию...
Гни свою линию...
Гни свою линию...
Горят огни…


Другие новости по теме:

  • Van Der Graaf Generator: Электричество смотрит нам в лицо. Часть 10
  • Аккорды Уматурман - Прасковья
  • Аккорды Зимовье Зверей - Конец цитаты
  • Аккорды Океан Ельзи - Холодно
  • Аккорды Ария - Свобода

  •  
     
     
    Популярные статьи
  • ДДТ - История звука
  • Мы вышли из кино. Трибьют Кино
  • Браво - Бравоспектива
  • Тараканы! - Larger Than… LIVE 25th Anniversary Show (2CD)
  • Слот - 15 (The Best Of)
  • Маша и Медведи - Мира война (Single)
  • 7Б - Солнцу решать
  • СерьГа - Приметы

  •  
    Русский рок от "А" до "Я". 2010-2017