скачать рок Русский рок от А до Я скачать рок
   
 
 
Навигация
Главная Истории групп Рок-библиотека Рок-календарь Рок-юмор mp3 Музыкальный софт Интересные ссылки Обратная связь Благодарности

Аккорды
А Б В Г Д Е
Ж З И К Л М
Н О П Р С Т
У Ф Х Ч Ш Ы
*
Э Ю Я 0-9
*

Таблица аккордов


GTP
А Б В Г Д Е
Ж З И К Л М
Н О П Р С Т
У Ф Х Ч Ш Ы
*
Э Ю Я 0-9
*

F.A.Q. по Guitar Pro 4


Опрос
Как давно вы слушаете русский рок?

 
Немного рекламы
 

 
Аккорды Ария - Антихрист

Аккорды Ария - Антихрист


Вступление:

e|------------------------|-------------------------|
H|------------------------|-------------------------|
G|-----0-----0-----0----0-|-----0-----0-----0----0--|
D|---4-----4-----4----4---|---4-----4-----4----4----|
A|-2-----2-----2----2-----|-3-----3-----3----3------|
E|-0----------------------|-1-----------------------|

Bm
Я рожден был ночью,
В час молитвы волчьей,
C
В темном логове зверей.
Bm
Черный Ангел Ада,
Был со мною рядом,
C
Hа кругах людских страстей.
Bm
Я прошел сквозь пламя
Был огнем и камнем,
C
Червем был средь мертвых тел,
Bm
Прозван был Нечистым,
Имя мне - Антихрист.
C
Ты - Христос, ты - на кресте...
G7 A Bm A Bm
Мм...

Проигрыш:

e|-----------------------------|--------------------------|
H|-----------------------------|--------------------------|
G|-----------------------------|-----0-----0-----0-----0--|
D|-----------------------------|---4-----4-----4-----4----|
A|---2------4------5------7----|-2-----2-----2-----2------|
E|-3---3--5---5--7---7--9---9--|--------------------------|

e|-------------------------|
H|-------------------------|
G|-------------------------|
D|-------------------------|
A|---2------4------5-------|
E|-3---3--5---5--7---7--9--|

Без тебя я - призрак,
Что из храма изгнан,
Без меня ты - скучный миф.
Мы с тобой как братья
В гимнах и проклятьях
С вечной властью над людьми.
Но ту прячешь тайну,
И в душе хрустальной,
Знаю я, грех смертный есть.
Я не тот, кто выдаст,
Имя мне - Антихрист.
Ты - Христос, тяжел твой крест...

Ты крещен был кровью,
Не речной водою,
В первый год судьбы земной.
Царь терзал младенцев,
И взрывалось сердце,
Слыша скорбный женский вой.
Царь искал Иисуса,
Чтоб убить искусно,
Но ты Богом был спасен.
По пескам кровавым
Начал путь свой к славе,
Ты - Христос, велик твой трон...

Bm
Для миллионов ты невиновен.
C
Мой же отец - Сатана.
Bm
Но Падший Ангел Богу был равен,
C
Мстить за него буду я.
Bm
Но мы сочтемся, в битве сойдемся
C
В год самой горькой звезды.
Bm
Знаю, наверно, рухну в первым,
C
Только погибнешь и ты.

Bm Dsus2 G
Имя мне - Антихрист!
A6 Bm
Знак мой - цифра шесть... шесть... шесть...
Dsus2 G
Имя мне - Антихрист!
A6 F#7
Плачьте о душе...


Другие новости по теме:

  • Ария - Традиционный Новогодний
  • Ария - Сделано в России (CD 1) скачать mp3
  • Аккорды Разные люди - Ангел
  • Аккорды Чиж & Co - Идиллия
  • Аккорды Lumen - 6 миллиардов

  •  
     
     
    Популярные статьи

     
    Русский рок от "А" до "Я". 2010-2017