скачать рок Русский рок от А до Я скачать рок
   
 
 
Навигация
Главная Истории групп Рок-библиотека Рок-календарь Рок-юмор mp3 Музыкальный софт Интересные ссылки Обратная связь Благодарности

Аккорды
А Б В Г Д Е
Ж З И К Л М
Н О П Р С Т
У Ф Х Ч Ш Ы
*
Э Ю Я 0-9
*

Таблица аккордов


GTP
А Б В Г Д Е
Ж З И К Л М
Н О П Р С Т
У Ф Х Ч Ш Ы
*
Э Ю Я 0-9
*

F.A.Q. по Guitar Pro 4


Опрос
Как давно вы слушаете русский рок?

 
Немного рекламы
 

 
Аккорды Чиж & Co - Идиллия

Аккорды Чиж & Co - Идиллия


e|------------------------|---------------------|----------------------|
H|-----7-7---------12--7--|-----7-7------12--7--|-----7-7--------12--7-|
G|---7-----7----12--------|---7-----7----12-----|---7-----7---12-------|
D|-7---------7------------|-7---------7---------|-7---------7----------|
A|------------------------|---------------------|----------------------|
E|------------------------|---------------------|----------------------|

e|----------------------|
H|------7-7------12-----|
G|----7-----7------(7)--| --> 2 раза. То, что в скобках - второй раз не играется.
D|--7---------7---------|
A|----------------------|
E|----------------------|

Dsus2 Em7 G Csus2
Странное чувство какой-то вины -
Dsus2 Em7 G Csus2
Мы так редко бываем с тобою вдвоем.
Dsus2 Em7 G Csus2
Стоят разведенными наши мосты
Dsus2 Em7 G Csus2
И каждый замкнулся на чем-то своем

G D Csus2 D
Взгляни мне в глаза, не бойся, смелей!
G D Csus2 D
Ты почувствуешь, сразу станет теплей
G G D Em
И вспомни о том, как однажды сплелись
Em9(add C) D
Драконы наших страстей

Не убеждай меня в том, что я стал
Заметно старее лицом
Не говори мне, что это сказалась
Крепкая дружба с вином.

Не упрекай, что в последнее время
Я стал равнодушен к тебе
И не пытайся казаться чужой,
Я знаю, ты веришь мне.

Возьми мою грусть, прими мою радость,
Кто еще может быть ближе тебе?
И бережно ставя в угол гитару,
Ты скажешь: "Во всем виновата она!"

Меня от всей души рассмешит
До слез, твой по-детски наивный укол.
Я знаю, что ты и сама влюблена,

Em9(add C) D
e|-----------|--------------2h3-2-------3-2h3p2-----2-|
B|---------3-|------3-----4-------3-------------3-----|
G|-------0---|----0-----2-----------2-------------2---|
D|-----4-----|--4-----0---------------0---------------|
A|-----------|3---------------------------------------|
E|---0-------|----------------------------------------|

Не меньше меня в рок-н-ролл.

C D G Em7
e|-0-----0-------0|-2-----2-------0|-3-----3-------0|-0-----0---------|
B|-----1---1---1--|-----3---3---3--|-----3---3---3--|-----3---3-------|
G|---0-------0----|---2-------2----|---4-------4----|---0-------0---0-|
D|----------------|-0--------------|----------------|-------------2---|
A|-3--------------|----------------|----------------|-----------------|
E|----------------|----------------|-3--------------|-0---------------|

Идиллия наша, настолько нелепа, что мы не находим слова.

C D G C A7sus4
e|-0-----0-------0|-2-----2h3p2----|----3------------------|
B|-----1---1---1--|-----3-------3--|----0------1---------3-|
G|---0-------0----|---2-----------2|----0------0--------0--|
D|----------------|-0--------------|-------------------2---|
A|-3--------------|----------------|-----------3------0----|
E|----------------|----------------|----3------------------|

Мы все понимаем, мы просто смеемся, нам нравится эта игра...


Другие новости по теме:

  • Аккорды Мёртвые Дельфины - Девственность
  • Аккорды Сплин - Пластмассовая жизнь
  • Аккорды Наутилус Пампилиус - Титаник
  • Аккорды Чиж & Co - 18 берез
  • Аккорды Lumen - 6 миллиардов

  •  
     
     
    Популярные статьи

     
    Русский рок от "А" до "Я". 2010-2017