скачать рок Русский рок от А до Я скачать рок
   
 
 
Навигация
Главная Истории групп Рок-библиотека Рок-календарь Рок-юмор mp3 Музыкальный софт Интересные ссылки Обратная связь

Аккорды
А Б В Г Д Е
Ж З И К Л М
Н О П Р С Т
У Ф Х Ч Ш Ы
*
Э Ю Я 0-9
*

Таблица аккордов


GTP
А Б В Г Д Е
Ж З И К Л М
Н О П Р С Т
У Ф Х Ч Ш Ы
*
Э Ю Я 0-9
*

F.A.Q. по Guitar Pro 4


Опрос
Как давно вы слушаете русский рок?

 
Немного рекламы
 

 
Аккорды Кино - Звезда по имени Солнце

Аккорды Кино - Звезда по имени Солнце


Вступление:

e|--5--5--5--8--5--5--5--8--|--5--5--5--8--5--5--5--5--|
H|--6--6--6--6--6--6--6--6--|--6--6--6--6--6--6--6--6--|
G|--7--7--7--7--7--7--7--7--|--7--7--7--7--7--7--7--7--|
D|--0-----------0-----------|--0-----------0-----------|
A|--------------------------|--------------------------|
E|--------------------------|--------------------------|

e|--5----x--5--5--5--x----|--5----x--5--5--5--x----|
H|--5----x--5--5--5--x----|--5----x--5--5--5--x----|
G|--5----x--5--5--5--x----|--5----x--5--5--5--x----|
D|--7----x--7--7--7--x----|--7----x--7--7--7--x----|
A|--7----x--7--7--7--x----|--7----x--7--7--7--x----|
E|--5----x--5--5--5--x----|--5----x--5--5--5--x----|

Am C
Белый снег, серый лед, на растрескавшейся земле,
Dm G
Одеялом лоскутным на ней, город в дорожной петле.
Am C
А над городом плывут облака, закрывая небесный свет,
Dm G
А над городом - желтый дым, городу две тысячи лет,
Dm Am
Прожитых под светом Звезды по имени Солнце.

Проигрыш:

Dm Am Dm


Am C
И две тысячи лет - война, война без особых причин,
Dm G
Война - дело молодых, лекарство против морщин.
Am C
Красная, красная кровь - через час уже просто земля,
Dm G
Через два на ней цветы и трава, через три она снова жива,
Dm Am
И согрета лучами Звезды по имени Солнце.

Проигрыш:

Dm Am Dm


Am C
И мы знаем, что так было всегда, что Судьбою больше любим,
Dm G
Кто живет по законам другим и кому умирать молодым.
Am
Он не помнит слова «да» и слова «нет»,
C
Он не помнит ни чинов, ни имен,
Dm
И способен дотянуться до звезд,
G
Не считая, что это сон,
Dm Am
И упасть опаленным Звездой по имени Солнце.

Проигрыш:

Dm Am Dm




Другие новости по теме:

  • Кино - Последний концерт. Лужники. 24 июня 1990 года скачать mp3
  • Алиса - Звезда по имени "Рок" скачать mp3
  • Кино - Звезда по имени Солнце скачать mp3
  • Аккорды Гражданская оборона - Он увидел солнце
  • Аккорды группы Кино - Весна

  •  
     
     

    Популярные статьи

     
    Русский рок от "А" до "Я". 2010