скачать рок Русский рок от А до Я скачать рок
   
 
 
Навигация
Главная Истории групп Рок-библиотека Рок-календарь Рок-юмор mp3 Музыкальный софт Интересные ссылки Обратная связь

Аккорды
А Б В Г Д Е
Ж З И К Л М
Н О П Р С Т
У Ф Х Ч Ш Ы
*
Э Ю Я 0-9
*

Таблица аккордов


GTP
А Б В Г Д Е
Ж З И К Л М
Н О П Р С Т
У Ф Х Ч Ш Ы
*
Э Ю Я 0-9
*

F.A.Q. по Guitar Pro 4


Опрос
Как давно вы слушаете русский рок?

 
Немного рекламы
 

 
Аккорды Гражданская оборона - Он увидел солнце

Аккорды Гражданская оборона - Он увидел солнце


e|-9-------9-------9----9-------9-------9----9--------------|
H|---10-10---10-10---10---10-10---10-10---10---10-10--------|
G|----------------------------------------------------------|
D|----------------------------------------------------------|
A|----------------------------------------------------------|
E|----------------------------------------------------------|

e|-9-------9------------------------------------------------|
H|---10-10---10-12-10-9-10-5--------------------------------|
G|----------------------------------------------------------|
D|----------------------------------------------------------|
A|----------------------------------------------------------|
E|----------------------------------------------------------|

Проигрыш:

F#m A C#


Проигрыш 2:

F#m Hm F#m Hm F#m Hm A C#
F#m Hm F#m Hm F#m Hm A C#


F#m Hm A C#
Замедленный шок, канавы с водой,
F#m Hm A C#
Бетонные стены, сырая земля,
F#m Hm A C#
Железные окна, электрический свет,
F#m Hm A C# H C#
Заплесневший звук, раскалённый асфальт.

Припев:

A E C# F#m
А мир был чудесный, как сопля на стене,
A E C# F#m
А город был хороший, словно крест на спине,
A D E A
А день был счастливый, как слепая кишка,
D C#
А он увидел Солнце...

Проигрыш 2.

Пластмассовый дым, горелая вонь,
Колючая проволока вдаль километрит,
Обрывки резины, колеса и шлак,
Слепые траншеи, сухая трава.

Припев.

Проигрыш:

F#m Hm A C#


Проигрыш 2.

Дозорные вышки, осколки стекла,
Кирпичные шеренги, крематорий дымится,
Консервные банки, обрывки бумаг,
Автомат, униформа и противогаз.

Припев.

Соло:

e|-9-------9-------9--------7-5-4-5---4-5-7-5-4-5-4-2-0-2---|
H|---10-10---10-10---10-10----------5-----------------------|
G|----------------------------------------------------------|
D|----------------------------------------------------------|
A|----------------------------------------------------------|
E|----------------------------------------------------------|

e|---------5-4-5-7-9-7-9-12-------5-7-2-5-7-9-7-9-12-14-12--|
H|-2-5-7-9------------------14-10---------------------------|
G|----------------------------------------------------------|
D|----------------------------------------------------------|
A|----------------------------------------------------------|
E|----------------------------------------------------------|

e|-10-9-10-9-5-7-2-5-7-9-7-9-12-9-14-12-14-17-17-17-17-17---|
H|----------------------------------------------------------|
G|----------------------------------------------------------|
D|----------------------------------------------------------|
A|----------------------------------------------------------|
E|----------------------------------------------------------|

e|-16-14-12-14-9-7-5-7---5-7-7---5-7-9-7-5-7----9-----------|
H|---------------------7-------7-------------7--10----------|
G|----------------------------------------------------------|
D|----------------------------------------------------------|
A|----------------------------------------------------------|
E|----------------------------------------------------------|



Другие новости по теме:

  • Аккорды Гражданская оборона - Скоро настанет совсем
  • Аккорды Гражданская оборона - Против
  • Аккорды Гражданская оборона - Никто не хотел умирать
  • Аккорды Гражданская оборона - Мёртвые
  • Аккорды Гражданская оборона - Кого-то еще

  •  
     
     

    Популярные статьи

     
    Русский рок от "А" до "Я". 2010