скачать рок Русский рок от А до Я скачать рок
   
 
 
Навигация
Главная Истории групп Рок-библиотека Рок-календарь Рок-юмор mp3 Музыкальный софт Интересные ссылки Обратная связь Благодарности

Аккорды
А Б В Г Д Е
Ж З И К Л М
Н О П Р С Т
У Ф Х Ч Ш Ы
*
Э Ю Я 0-9
*

Таблица аккордов


GTP
А Б В Г Д Е
Ж З И К Л М
Н О П Р С Т
У Ф Х Ч Ш Ы
*
Э Ю Я 0-9
*

F.A.Q. по Guitar Pro 4


Опрос
Как давно вы слушаете русский рок?

 
Немного рекламы
 

 
Аккорды 9 район - Дорогу Рок-н-роллу

Аккорды 9 район - Дорогу Рок-н-роллу


Вступление:

Em
e|----0---0-0--0-|----0---0-0--0-|----0---0-0--0-|----0---0-0--0-|
H|----0---0-0--0-|----0---0-0--0-|----0---0-0--0-|----0---0-0--0-|
G|---------------|---------------|---------------|---------------|
D|-2-----2-2-2---|-2-----2-2-2---|-2-----2-2-2---|-2-----2-2-2---|

Hm
e|----2---2-2--2-|----2---2-2--2-|
H|----0---0-0--0-|----0---0-0--0-|
G|---------------|---------------|
D|-4-----4-4-4---|-4-----4-4-4---|

Em
e|----0---0-0--0-|----0---0-0--0-|
H|----0---0-0--0-|----0---0-0--0-|
G|---------------|---------------|
D|-2-----2-2-2---|-2-----2-2-2---|

Em
С тобой устал уже спорить, ты достала меня,
Ты повелася на хип-хопе, рок-н-ролл не для тебя.
Hm
Зачем ты смотришь часами на портрет на стене?
Em
Наивно ждешь, что когда-то придет он к тебе?

Ну а меня уже бесит их словесный понос,
Что круче их в плане секса никого не найдешь.
А ты уперлась рогами в этот бред из Москвы,
Но есть в Сибири покруче, поверь, мужики.

Припев:

C
Дорогу рок-н-роллу!
Em
И без суеты
Hm
Мы пыль подымем с пола,
Em
А ты сойдешь с лыжни.

Сейчас любой - и мясник, и колхозник, и жлоб -
Надели кожу и цепи, все танцуют хип-хоп.
Один отчаянный малый объявил рэп-войну,
Да я же знаю их всех, мощи не хватит ему.

И ты поверь мне, подруга, напрягаюсь не зря,
Ведь твой кумир - африканец, а секс-идол не я.
Но придет наше время, и придут наши дни
И мы растопчем любого на трудном пути.

Припев.

Проигрыш:

С Em Hm Em

Дорогу рок-н-роллу!
И без суеты
Мы пыль подымем с пола,
А ты сойдешь с лыжни.

Проигрыш:

С Em Hm Em
С Em Hm Em
С Em Hm Em
С Em Hm Em
С Em Hm Em
Em



Другие новости по теме:

  • Аккорды 9 район - Основной инстинкт
  • Аккорды 9 район - Бесконечная история
  • Аккорды 9 район - Без обмана
  • 9 район - Новое и лучшее - II скачать mp3
  • Аккорды ДДТ - Пропавший без вести

  •  
     
     
    Популярные статьи

     
    Русский рок от "А" до "Я". 2010-2017