скачать рок Русский рок от А до Я скачать рок
   
 
 
Навигация
Главная Истории групп Рок-библиотека Рок-календарь Рок-юмор mp3 Музыкальный софт Интересные ссылки Обратная связь Благодарности

Аккорды
А Б В Г Д Е
Ж З И К Л М
Н О П Р С Т
У Ф Х Ч Ш Ы
*
Э Ю Я 0-9
*

Таблица аккордов


GTP
А Б В Г Д Е
Ж З И К Л М
Н О П Р С Т
У Ф Х Ч Ш Ы
*
Э Ю Я 0-9
*

F.A.Q. по Guitar Pro 4


Опрос
Как давно вы слушаете русский рок?

 
Немного рекламы
 

 
Аккорды Ляпис Трубецкой - Березки

Аккорды Ляпис Трубецкой - Березки


Вступление:

Dm Bb Gm A Dm Bb Gm A Dm Bb Gm A Dm Bb Gm A
H|---6---6----------------------6----------6---8------------8p5--|
G|-7---7---7~~~~----------------7--------7---7---7---------------|
D|------------------------------------------7h8------------------|


Dm Bb Gm A
То ни ливни за окном потешаются с листвой,
То ни ворон прокричал, то беда пришла за мной.
Ой, и славно погулял, повдыхал яблонев цвет,
За окном уже закат, а любовь ушла в рассвет.

Dm Bb Gm A Dm Bb Gm A
H|---6---6-----------6---8-----------|
G|-7---7---7~~~----7---7---7~~~------|

Месяц стонет, звезды пляшут, ясным глазкам не до сна,
Снова вьюга, снова снег, ну а где же здесь весна?
Поскорей бы улеглось, да забилось в угол прочь,
За окном уже рассвет, а любовь умчалась в ночь.

Dm Bb Gm A Dm Bb Gm A
e|--------------------5-----------------------------------|
H|---6---6-------6---8-------6---------------8--6-5-6-8~~-|
G|-7---7---7~--7---7---7~--7---7---7~---------------------|
D|---------------------------7h8--------------------------|

А любовь умчалась прочь...

Gm Bbsus2 F
Не пугайте, ветры, криком, не пугайте, ветры, свистом
Csus2
Стайки беленьких берез.
Gm Bbsus2
Принесите, ветры, запах, принесите, ветры, цвет,
C
Моей любимой волос...

Припев:

Dm G Bb C
Поздно! Далеко где-то...
Поздно! Далеко кто-то...
Поздно! Далеко лето...
Поздно! Далеко где-то...

Dm Bb Gm A Dm Bb Gm A
H|---6---6-----------6---8---6----------------8~--6-5-6-----|
G|-7---7---7~------7---7---7---7~~----------------------7~~-|
D|------------------------------7/8-------------------------|

Припев.


Другие новости по теме:

  • Аккорды Ляпис Трубецкой - Девочка с бездонными глазами
  • Аккорды Ляпис Трубецкой - Пастушок
  • Аккорды Ляпис Трубецкой - Голуби
  • Аккорды Ляпис Трубецкой - Метелица
  • Аккорды Ляпис Трубецкой - Любовь

  •  
     
     
    Популярные статьи
  • 7Б - Солнцу решать
  • СерьГа - Приметы
  • Вадим Самойлов - Слова закончились (Single)
  • Сурганова и Оркестр - Парижская акустика
  • The Matrixx - Субкоманданте (Single)
  • Мураками - Ипи (EP)
  • Ольга Арефьева и Ковчег - Ангел и девочка
  • Павел Кашин - Талисман

  •  
    Русский рок от "А" до "Я". 2010-2017