скачать рок Русский рок от А до Я скачать рок
   
 
 
Навигация
Главная Истории групп Рок-библиотека Рок-календарь Рок-юмор mp3 Музыкальный софт Интересные ссылки Обратная связь Благодарности

Аккорды
А Б В Г Д Е
Ж З И К Л М
Н О П Р С Т
У Ф Х Ч Ш Ы
*
Э Ю Я 0-9
*

Таблица аккордов


GTP
А Б В Г Д Е
Ж З И К Л М
Н О П Р С Т
У Ф Х Ч Ш Ы
*
Э Ю Я 0-9
*

F.A.Q. по Guitar Pro 4


Опрос
Как давно вы слушаете русский рок?

 
Немного рекламы
 

 
Аккорды Lumen - Синяя птица

Аккорды Lumen - Синяя птица


Проигрыш:

Hm G Еm F#
е|------------------|
H|------------------|
G|-4-4-6-7-6-4-3-4-6|
D|------------------|
A|------------------|
E|------------------|

Hm G Еm F#
Синяя птица, птица счастья,
Тебя знаю недолго, но давай прощаться.
Время пришло, пусть ты не хочешь улетать,
Я уйду сам, и мне дано так мало знать.
Рада ты мне или не рада,
Но я ухожу, и просто так надо.

Проигрыш.

Я рукой на стене пишу иероглифы,
Я не знаю, зачем мне эти знаки,
Вы сейчас так словоохотливы,
Но все вы брешите, как собаки.

Я не буду больше вам верить,
Я закрою все окна, я закрою все двери,
Люди вы или стадо,
Но я ухожу, и просто так надо!

Я закрываю глаза, но я не тужу,
Я хлопаю дверью, просто я ухожу.
Назовешь меня другом или может быть гадом,
Но я ухожу, и просто так надо.

Проигрыш:

е|---------------|
H|-3-5-2---------|
G|-------4-3-4-4-|
D|---------------|
A|---------------|
E|---------------|

Hm G
е|------------------------------|
H|-5-5-5-5----------------------|
G|---------7-7-7-6-6-6-7-7-7-4--|
D|------------------------------|
A|------------------------------|
E|------------------------------|

Еm F#
е|------------------------------|
H|-5-5-5-5----------------------|
G|---------7-7-7-6-6-6-7-7-7-6--|
D|------------------------------|
A|------------------------------|
E|------------------------------|

Hm G
е|------------------------------|
H|-5-5-5-5----------------------|
G|---------7-7-7-6-6-6-7-7-7-4--|
D|------------------------------|
A|------------------------------|
E|------------------------------|

Еm F#
е|------------------------------|
H|-5-5-5-5-------5-5-5-7-7-7-7--|
G|---------7-7-7----------------|
D|------------------------------|
A|------------------------------|
E|------------------------------|


Другие новости по теме:

  • Аккорды Телевизор - Никому не нужен
  • Lumen - Без консервантов скачать mp3
  • Аккорды Торба-на-Круче - Моя любовь
  • Аккорды Машина времени - Синяя птица
  • Аккорды Кино - Закрой за мной дверь

  •  
     
     
    Популярные статьи

     
    Русский рок от "А" до "Я". 2010-2017