скачать рок Русский рок от А до Я скачать рок
   
 
 
Навигация
Главная Истории групп Рок-библиотека Рок-календарь Рок-юмор mp3 Музыкальный софт Интересные ссылки Обратная связь Благодарности

Аккорды
А Б В Г Д Е
Ж З И К Л М
Н О П Р С Т
У Ф Х Ч Ш Ы
*
Э Ю Я 0-9
*

Таблица аккордов


GTP
А Б В Г Д Е
Ж З И К Л М
Н О П Р С Т
У Ф Х Ч Ш Ы
*
Э Ю Я 0-9
*

F.A.Q. по Guitar Pro 4


Опрос
Как давно вы слушаете русский рок?

 
Немного рекламы
Дешевый хостинг teamspeak подробнее.
 

 
Аккорды Кино - Закрой за мной дверь

Аккорды Кино - Закрой за мной дверь


Вступление:

Hm A F#m G
e|---------------|-------------|---------------|-------------|
H|---------------|---3-2-0-2---|---------------|-------3-3-2-|
G|---------------|-----------2-|---------------|-------0-----|
D|-------4-4---4-|-------------|-------4-4---4-|-----0-------|
A|-2-2-2-----2---|-0-----------|---------------|-------------|
E|---------------|-------------|-2-2-2-----2---|-3-3---------|

Hm A F#m G Hm
e|-------|-------------|---------------|---------------|-----
H|-2-3---|-2-3-2-0-2---|---------------|---------------|-----
G|-------|-2-------2-2-|---------------|---------------|-----
D|-------|-------------|-------4-4---4-|-------0-0---0-|-----
A|-2---2-|-0-------0---|---------------|---------------|-----
E|-------|-------------|-2-2-2-----2---|-3-3-3-----3---|-----

Hm A
Они говорят: им нельзя рисковать,
F#m G
Потому что у них есть дом, в доме горит свет.
Hm A
И я не знаю точно, кто из нас прав,
F#m G
Меня ждет на улице дождь, их ждет дома обед.

Припев:

Hm A F#m G
Закрой за мной дверь, я ухожу,
Hm A F#m G Hm A F#m G
Закрой за мной дверь, я ухожу.

Hm A
И если тебе вдруг наскучит твой ласковый свет,
F#m G
Тебе найдется место у нас, дождя хватит на всех.
Hm A
Посмотри на часы, посмотри на портрет на стене,
F#m G
Прислушайся - там, за окном, ты услышишь наш смех.

Припев.


Другие новости по теме:

  • Аккорды Ленинград - Не со мной
  • Аккорды Воскресение - Спой со мной
  • Кино - Кино в кино скачать mp3
  • Кино - Группа крови скачать mp3
  • Аккорды Кино - Пора

  •  
     
     
    Популярные статьи

     
    Русский рок от "А" до "Я". 2010-2017