скачать рок Русский рок от А до Я скачать рок
   
 
 
Навигация
Главная Истории групп Рок-библиотека Рок-календарь Рок-юмор mp3 Музыкальный софт Интересные ссылки Обратная связь

Аккорды
А Б В Г Д Е
Ж З И К Л М
Н О П Р С Т
У Ф Х Ч Ш Ы
*
Э Ю Я 0-9
*

Таблица аккордов


GTP
А Б В Г Д Е
Ж З И К Л М
Н О П Р С Т
У Ф Х Ч Ш Ы
*
Э Ю Я 0-9
*

F.A.Q. по Guitar Pro 4


Опрос
Как давно вы слушаете русский рок?

 
Немного рекламы
 

 
Аккорды БИ-2 - Мой рок-н-ролл

Аккорды БИ-2 - Мой рок-н-ролл


e|--------0---------------0---------------0---------------0---------|
H|----------0---------------0---------------0---------------0-------|
G|----2-------2---2---0-------0---0---5-------5---5---5-------5---5-|
D|------3-------3-------0-------0-------2-------2-------2-------2---|
А|----------------------------------0---------------0---------------|
Е|--1---------------3-----------------------------------------------|

И то, что было, набело откроется потом,
Мой рок-н-ролл это не цель и даже не средство,
Не новое, а заново, один и об одном,
Дорога в мой дом и для любви это не место.

Припев:

Прольются все слова как дождь,
И там, где ты меня не ждешь,
Ночные ветры принесут тебе прохладу.
На наших лицах без ответа,
Лишь только отблески рассвета,
Того, где ты меня не ждешь.

А дальше, это главное, похожий на тебя,
В долгом пути я заплету в волосы ленты,
И не способный на покой я знак подам тебе рукой,
Прощаясь с тобой, как будто с легендой.


e|--------------0-----------|--------------0-----------|
H|--------0-----------0-----|--------0-----------0-----|
G|-----5-----5-----5-----5--|-----5-----5-----5-----5--|
D|--3-----------------------|--------------------------|
А|--------------------------|--------------------------|
Е|--------------------------|--3-----------------------|

e|--------------0-----------|--------------0-----------|
H|--------0-----------0-----|--------0-----------0-----|
G|-----5-----5-----5-----5--|-----5-----5-----5-----5--|
D|--------------------------|--------------------------|
А|--0-----------------------|--0-----------------------|
Е|--------------------------|--------------------------|



Другие новости по теме:

  • Аккорды Дельфин - Ботинки
  • Аккорды Александр Башлачев - Чёрные дыры
  • Аккорды Аквариум – Небо становится ближе
  • Аккорды Аквариум - Железнодорожная вода
  • Аккорды Агата Кристи - Извращение

  •  
     
     

    Популярные статьи

     
    Русский рок от "А" до "Я". 2010