скачать рок Русский рок от А до Я скачать рок
   
 
 
Навигация
Главная Истории групп Рок-библиотека Рок-календарь Рок-юмор mp3 Музыкальный софт Интересные ссылки Обратная связь Благодарности

Аккорды
А Б В Г Д Е
Ж З И К Л М
Н О П Р С Т
У Ф Х Ч Ш Ы
*
Э Ю Я 0-9
*

Таблица аккордов


GTP
А Б В Г Д Е
Ж З И К Л М
Н О П Р С Т
У Ф Х Ч Ш Ы
*
Э Ю Я 0-9
*

F.A.Q. по Guitar Pro 4


Опрос
Как давно вы слушаете русский рок?

 
Немного рекламы
 

 
Аккорды Дельфин - Ботинки

Аккорды Дельфин - Ботинки


Вступление:

H|---------------------------------------7------|
G|--6---8-9----6---8-9------6---8-9---------8---|

Куплет:

H|-----7------|
G|--------8---|

Что ты видел в своей жизни хорошего?
Что ты знаешь о цвете неба?
Что ты можешь вспомнить из своего прошлого?
Кроме того, что никогда нигде не был.
Каждый новый твой день оставляет на венах ссадины,
И нет света одна лишь тень,
Солнце твое тобою же и украдено.

H|---------------7------|---------------7------|
G|--6---8-9---------8---|--6---8-9---------8---|

Запах цветов да вещь банальная,
Но ты не сможешь уже его чувствовать,
Плохо закончится история твоя печальная,
Ты начнешь навсегда отсутствовать.
Смерть слезы обычные радости,
Глаза той, с которой хочешь быть,
А можно забадяжить себе какой-нибудь гадости,
И навсегда об этом забыть.

H|---------------7------|---------------7------|
G|--6---8-9---------8---|--6---8-9---------8---|

H|---------------------------------------7------|
G|--6---8-9----6---8-9------6---8-9---------8---|

Ты убиваешь в себе самое лучшее,
Все то, что мог бы отдать другим,
Напоказ выставляя одно лишь только худшее,
Ненавидя себя таким.
Ты топчешь мир своими ботинками,
Не замечая, куда наступаешь,
А время от тебя уходит цветными картинками,
Но ты даже этого не понимаешь.

H|-----------------------------------|
G|--6---8-9----6---8-9------6---8-9--|


Другие новости по теме:

  • Аккорды Дельфин - Она одна
  • Аккорды БИ-2 - Мой рок-н-ролл
  • Аккорды БИ-2 - Война
  • Аккорды Александр Башлачев - Чёрные дыры
  • Аккорды Аквариум – Небо становится ближе

  •  
     
     
    Популярные статьи
  • ДДТ - История звука
  • Lumen - Хроника бешеных дней
  • Мы вышли из кино. Трибьют Кино
  • Легион - Двойная звезда
  • Браво - Бравоспектива
  • Тараканы! - Larger Than… LIVE 25th Anniversary Show (2CD)
  • Слот - 15 (The Best Of)
  • Маша и Медведи - Мира война (Single)

  •  
    Русский рок от "А" до "Я". 2010-2017