скачать рок Русский рок от А до Я скачать рок
   
 
 
Навигация
Главная Истории групп Рок-библиотека Рок-календарь Рок-юмор mp3 Музыкальный софт Интересные ссылки Обратная связь Благодарности

Аккорды
А Б В Г Д Е
Ж З И К Л М
Н О П Р С Т
У Ф Х Ч Ш Ы
*
Э Ю Я 0-9
*

Таблица аккордов


GTP
А Б В Г Д Е
Ж З И К Л М
Н О П Р С Т
У Ф Х Ч Ш Ы
*
Э Ю Я 0-9
*

F.A.Q. по Guitar Pro 4


Опрос
Как давно вы слушаете русский рок?

 
Немного рекламы
 

 
Аккорды Ленинград - 007

Аккорды Ленинград - 007


Вступление:

e|-----0-----------0----|
H|---1----4-----4--1----|
G|-2---------------2----|
D|-----------------2----|
A|-----------------0----|
E|----------------------|

e|--5--7-7-7--7--5-5-5--5---8-8-8--8---7--7--7--|
H|--5--5-5-5--5--5-5-5--5---5-5-5--5---5--5--5--|
G|--5--5-5-5--5--5-5-5--5---5-5-5--5---5--5--5--|
D|--7--7-7-7--7--7-7-7--7---7-7-7--7---7--7--7--|
A|----------------------------------------------|
E|----------------------------------------------|

Am Am Am Am
Я-я, я-я! Пришёл сегодня пьяный в жопу,
Am Am Am
Ты сказала твои нервы скоро лопнут,
Dm Dm Dm Dm
Ты сказала, что не можешь со мной,
Am
Ты сказала: "Алкоголик больной!",
Dm
Ты сказала: "Ухожу на совсем!",
E
А мне насрать, уходи. Я агент 007!

Я сегодня пьяный в жопу,
Ты сказала твои нервы лопнут,
Ты сказала, что не любишь меня,
Ты сказала, я похож на свинья.
Ты сказала, что уходишь опять,
А мне насрать, уходи. У меня есть 0,5!

А-а-а-а-а-а!!!

e|-----------------------|
H|-----------------------|
G|-----------------------|
D|---2---3----4----3---3-|
A|-0---0----0---0----0---|
E|-----------------------|

e|-------------------------------|
H|-------------------------------|
G|-------------------------------|
D|---2---3----4--3-3-3-3-3-3-3-3-|
A|-0---0----0----0-0-0-0-0-0-0-0-|
E|-------------------------------|


Другие новости по теме:

  • Аккорды Элизиум - До завтра
  • Аккорды Браво - Дорога в облака
  • Аккорды Выход - К чертям
  • Аккорды Океан Ельзи - Друг
  • Аккорды Чиж & Co - Полонез

  •  
     
     
    Популярные статьи
  • Дельфин - 97 01
  • Территория Отчуждения - Брать живьём!
  • Станционный Смотритель - СтереоС
  • Фаэтон - Знак проклятья

  •  
    Русский рок от "А" до "Я". 2010-2017