скачать рок Русский рок от А до Я скачать рок
   
 
 
Навигация
Главная Истории групп Рок-библиотека Рок-календарь Рок-юмор mp3 Музыкальный софт Интересные ссылки Обратная связь Благодарности

Аккорды
А Б В Г Д Е
Ж З И К Л М
Н О П Р С Т
У Ф Х Ч Ш Ы
*
Э Ю Я 0-9
*

Таблица аккордов


GTP
А Б В Г Д Е
Ж З И К Л М
Н О П Р С Т
У Ф Х Ч Ш Ы
*
Э Ю Я 0-9
*

F.A.Q. по Guitar Pro 4


Опрос
Как давно вы слушаете русский рок?

 
Немного рекламы
 

 
Аккорды Чиж & Co - Полонез

Аккорды Чиж & Co - Полонез


e|------------------------------------------6----6-|
H|-6------6-8-----8-10-------10----------10-----6--|
G|-----5--------5------10-------10----12------7----|
D|---7--------5-----------10-------10-------8------|
A|-8--------7--------8-----------------------------|
E|-------------------------------------------------|

e|-5-----5-----------------------------5---------|
H|---7-----8-----8-----8---6-----6-------8-6-----|
G|-----5-----5-----5-----5-----7-----6-------5---|
D|-------------8-----8-------8-----7-----------7-|
A|-5-------6---------------5---------------5-----|
E|-----------------------------------------------|

e|---------5-8-6-----------------------------------|
H|-6-----8---------8---6-----5---6---7---8---5-----|
G|---5-----------7---7---7-----5---5---5---5---5---|
D|-----7-----5-------------5---------------------5-|
A|-------------------------------5---6---7---------|
E|---------------------------8---------------8-----|

e|-----
H|---5-
G|-5-5-
D|---5-
A|---3-
E|-----

F C F A# D7 Gm
Давай разроем снег, и найдём хоть одну мечту,
A# C C7 F C7
Ты сказала: "Ты знаешь, она живет там".
F C F A# D7 Gm
Принесём домой, и оставим с собой до весны,
A# C F D7
А потом с балкона отпустим её - пусть летит…
D# C7 F D7
Колокольчик в твоих волосах звучит соль диезом,
D# C
Колокольчик в твоих волосах...

Давай разожжем костёр, и согреем хоть одну звезду,
Ты сказала, что нужно делать именно так.
Мы будем сидеть у огня, и рассказывать друг другу сны,
А потом нам споёт свою песню первая птица, и улетим.
Колокольчик в твоих волосах звучит соль диезом,
Колокольчик в твоих волосах...

Проигрыш:

F C Am D7 Gm F G7 C
F C Am D7 Gm F G7 C


Давай растопим лёд, и спасём хоть одну любовь,
Ты сказала мне, что видишь в этом новый восход.
Мы напишем стихи, о том, как нам хорошо с тобой,
А потом ты научишь меня танцевать полонез.
И мы взлетим ...
Колокольчик в твоих волосах звучит соль диезом,
Колокольчик в твоих волосах...


Другие новости по теме:

  • Порт (812) - Всё в твоих руках скачать mp3
  • Аккорды Конец Фильма - Тема любви
  • Аккорды Найк Борзов - В твоих глазах
  • Аккорды Выход - К чертям
  • Аккорды Ночные снайперы - По волнам твоих слез

  •  
     
     
    Популярные статьи
  • Танцы Минус - Три
  • Территория Отчуждения - Брать живьём!
  • Дельфин - 97 01
  • 5'nizza - КУ
  • Станционный Смотритель - СтереоС
  • Фаэтон - Знак проклятья

  •  
    Русский рок от "А" до "Я". 2010-2017