скачать рок Русский рок от А до Я скачать рок
   
 
 
Навигация
Главная Истории групп Рок-библиотека Рок-календарь Рок-юмор mp3 Музыкальный софт Интересные ссылки Обратная связь Благодарности

Аккорды
А Б В Г Д Е
Ж З И К Л М
Н О П Р С Т
У Ф Х Ч Ш Ы
*
Э Ю Я 0-9
*

Таблица аккордов


GTP
А Б В Г Д Е
Ж З И К Л М
Н О П Р С Т
У Ф Х Ч Ш Ы
*
Э Ю Я 0-9
*

F.A.Q. по Guitar Pro 4


Опрос
Как давно вы слушаете русский рок?

 
Немного рекламы
 

 
Аккорды Ария - Ангельская пыль

Аккорды Ария - Ангельская пыль


Вступление:

e|--------------------------------------------------|
H|-0-----0-----0---1---1-----1---0-----0-----0------|
G|---0-----0-----0---0---0-----0---0-----0-----0----|
D|-----2-----2---------2---2---------2-----2--------|
A|--------------------------------------------------|
E|--------------------------------------------------|

e|--------------------------------------------------|
H|-1-----1-----1------0-----0-----0---1-----1-------|
G|---0-----0-----0------0-----0-----0---0-----0-----|
D|-----2-----2------------2-----2---------2-----2---|
A|--------------------------------------------------|
E|--------------------------------------------------|

e|----------------------------------------|
H|-1---0-----0-----0---1-----1-----1------|
G|---0---0-----0-----0---0-----0-----0----|
D|---------2-----2---------2-----2--------|
A|----------------------------------------|
E|----------------------------------------|

Em C
На краю обрыва, за которым вечность,
Em Am6
Ты стоишь один во власти странных грез,
Em C
И, простившись с миром, хочешь стать беспечным,
G D
Поиграть с огнём нездешних гроз.

Наконец ты счастлив, как никто на свете,
Ангельская пыль тебя уносит вверх.
Только ей подвластны и восторг, и ветер.
В жидких небесах звучит твой смех.

Припев:

C D Em
Ангельская пыль.
C D B7
Это сон и быль!
Em C G D
Безумец, беглец, дороги нет.
Em C D
Ты видишь неверный свет.
Am F C G
Твой ангел зажег мираж огня.
Am F G
Он хочет убить тебя...


На краю обрыва песня неземная,
Музыка богов и голоса богинь.
Ты паришь над миром, но торговец раем
Вынет душу из тебя за героин.

Ты устал быть птицей и сорвался камнем,
Рухнул с высоты, спасаясь от судьбы.
На краю обрыва вновь летят на пламя
Сотни мотыльков-самоубийц.

Припев.


Другие новости по теме:

  • Ария - Live in Studio
  • Аккорды Эпидемия - Я молился на тебя
  • Аккорды Юта - На краю
  • Аккорды Озоновый слой - У неба на краю
  • Аккорды Элизиум - Солнце

  •  
     
     
    Популярные статьи

     
    Русский рок от "А" до "Я". 2010-2017