скачать рок Русский рок от А до Я скачать рок
   
 
 
Навигация
Главная Истории групп Рок-библиотека Рок-календарь Рок-юмор mp3 Музыкальный софт Интересные ссылки Обратная связь Благодарности

Аккорды
А Б В Г Д Е
Ж З И К Л М
Н О П Р С Т
У Ф Х Ч Ш Ы
*
Э Ю Я 0-9
*

Таблица аккордов


GTP
А Б В Г Д Е
Ж З И К Л М
Н О П Р С Т
У Ф Х Ч Ш Ы
*
Э Ю Я 0-9
*

F.A.Q. по Guitar Pro 4


Опрос
Как давно вы слушаете русский рок?

 
Немного рекламы
 

 
Аккорды Элизиум - Солнце

Аккорды Элизиум - Солнце


Вступление:

C E Am F G
e|---------------|--------------|--------------|---------|--------|
B|------5------5-|-----9------9-|----5------5--|----1----|----3---|
G|-----5------5--|----9------9--|---5------5---|-----2---|-----4--|
D|----5------5---|---9------9---|--7------7----|------3--|------5-|
A|--3------3-----|-7------7-----|--------------|--3------|--5-----|
E|---------------|----5------5--|--------------|---------|--------|

C E E7
У тебя опять сегодня оказался день неважный:
Am F G
Твой воздушный замок рухнул, утонул корабль бумажный.
C E E7
По щекам стекают слезы, твой привычный мир разрушен,
Am F G
В сердце наступает осень, город стал уныл и скушен.

Припев:

C E E7
Солнце - шарик пунцовый.
Am F G
Слезы, мир бестолковый!
C E E7
Звезды ходят кругами,
Am F G
Слезы, пыль под ногами.

Может быть, не все так плохо, может быть случится чудо?
Может быть, ты побываешь в городах из изумруда!
И внезапною волною с головой накроет лето
И закружит и завертит в ритме солнечного света!

Бас:

D F# Hm G A
G|---------|---------|---------|---------|
D|-----7---|---------|-----4---|---------|
A|-5-5---5-|-----4---|-2-2---2-|---5---7-|
E|---------|-2-2---2-|---------|-3---5---|

Припев.


Другие новости по теме:

  • Аккорды Виктор - Не плачь
  • Аккорды 7Б - Знаю! Будет!
  • Аккорды Кукрыниксы - Звезда
  • Аккорды Элизиум - Слезы-зеркала
  • Аккорды Элизиум - Обратная сторона луны

  •  
     
     
    Популярные статьи
  • Танцы Минус - Три
  • Территория Отчуждения - Брать живьём!
  • Дельфин - 97 01
  • 5'nizza - КУ
  • Станционный Смотритель - СтереоС
  • Фаэтон - Знак проклятья

  •  
    Русский рок от "А" до "Я". 2010-2017