скачать рок Русский рок от А до Я скачать рок
   
 
 
Навигация
Главная Истории групп Рок-библиотека Рок-календарь Рок-юмор mp3 Музыкальный софт Интересные ссылки Обратная связь

Аккорды
А Б В Г Д Е
Ж З И К Л М
Н О П Р С Т
У Ф Х Ч Ш Ы
*
Э Ю Я 0-9
*

Таблица аккордов


GTP
А Б В Г Д Е
Ж З И К Л М
Н О П Р С Т
У Ф Х Ч Ш Ы
*
Э Ю Я 0-9
*

F.A.Q. по Guitar Pro 4


Опрос
Как давно вы слушаете русский рок?

 
Немного рекламы
 

 
Аккорды Пилот - Стаи (о нехороших людях)

Аккорды Пилот - Стаи (о нехороших людях)


Вступление:

Hm G A F#m
e|-----0-2---5-2-------0-2---5-2---|-0---------0h2p0-----------------|
H|-0-3-------------0-3-------------|-----------------2---------2/32--|

Hm G A F#m
e|-----0-2---5-2-------0-2---5-2---|-0---------0h2p0-----------------|
H|-0-3-------------0-3-------------|-----------------2---------2/32--|

Hm G
Не давай им хлеба из рук,
A F#m
Не учи их быть сильнее тебя,
Hm G
Не клади им палец в рот
C F#
И не спи при них в открытом поле.

Припев:

Em C
Будут стаями, стаями кружиться
Am Hm
Над тобой.
Em C
Будут стаями, стаями кружиться
Am Hm
Над тобой.

Они могут вдруг стать тобой,
Они могут превратиться в свет,
Они будут ждать начало конца,
Но не жди от них спокойных песен.

Припев:

Будут стаями, стаями кружиться
Над тобой.
Будут стаями, стаями кружиться
Am E E7
Над тобой.

Am F
А когда кто-то глянет на дверь
G E7
И увидит там их,
Am F
Мы спасемся за чистые стекла весны,
A# F#
Мы покинем их, и будем правы.

Припев.

Проигрыш:

Hm G A F#m
e|-----0-2---5-2-------0-2---5-2---|-0---------0h2p0-----------------|
H|-0-3-------------0-3-------------|-----------------2---------2/32--|

Hm G A F#m
e|-----0-2---5-2-------0-2---5-2---|-0---------0h2p0-----------------|
H|-0-3-------------0-3-------------|-----------------2---------2/32--|



Другие новости по теме:

  • Аккорды Эпидемия - Я молился на тебя
  • Аккорды Озоновый слой - Лети, лети
  • Аккорды Ночные снайперы - Светофоры
  • Аккорды Наутилус Помпилиус - Я хочу быть с тобой
  • Аккорды БИ-2 - С тобой

  •  
     
     

    Популярные статьи

     
    Русский рок от "А" до "Я". 2010