скачать рок Русский рок от А до Я скачать рок
   
 
 
Навигация
Главная Истории групп Рок-библиотека Рок-календарь Рок-юмор mp3 Музыкальный софт Интересные ссылки Обратная связь Благодарности

Аккорды
А Б В Г Д Е
Ж З И К Л М
Н О П Р С Т
У Ф Х Ч Ш Ы
*
Э Ю Я 0-9
*

Таблица аккордов


GTP
А Б В Г Д Е
Ж З И К Л М
Н О П Р С Т
У Ф Х Ч Ш Ы
*
Э Ю Я 0-9
*

F.A.Q. по Guitar Pro 4


Опрос
Как давно вы слушаете русский рок?

 
Немного рекламы
 

 
Бутусов Вячеслав - Берег

Аккорды Бутусов Вячеслав - Берег


Вступление:

e|-0-0-----0-0---0-0-----3-3-1-1---0-0-----0-0---0-0-------------|
H|-----3-3-----3-----3-3---------------3-3-----3-----3-3-0-0-1-1-|
G|---------------------------------------------------------------|

e|-----------------------0-0-------------------------------------|
H|-3-3-1-1-3-3-1-3-3-1-1-----3-3-1-1-----1-1-----3-3-1-1-3-3-1-1-|
G|-----------------------------------2-2-----2-2-----------------|

Am G G7
К берегу спешат пароходы,
Am G D7sus
К берегу бегут поезда,
Dm E7 E
Но закрыты все замки и засовы -
F E7 E E7 E
На берег наступает вода.

Это медленная птица,
Берег - это пленный океан,
Берег - это каменное сердце,
Берег - это чья-то тюрьма.

C G
И, когда на берег хлынет волна
Am E
И застынет на один только миг,
F C
На земле уже случится война,
Dm Am
О которой мы узнаем из книг.

Am E G E Am E G E Am E G E Am E G E
D|-------0-2---2-0-2-------------0-2-0-2/53-2--|-------0-2---2-0-2-------------0-2-0-2/53-2--|
A|-0-2-3-------------0-----0-2-3---------------|-0-2-3-------------0-----0-2-3---------------|
E|---------------------------------------------|---------------------------------------------|

Лязгнут золотые ворота,
Чей-то голос скажет: "Лети!"
Надпись на дверях туалета:
"Будешь на Земле - заходи".

Звездочка блеснет у порога -
Догадайся, сколько ей лет.
Выйдешь на пустую дорогу -
Щелкнет за спиной пистолет.

Кто-то поставил на мне пробу,
Знать бы только, кто этот "кто".
Злоба - воробьиное слово -
Копится в карманах пальто.

И когда вода отступит назад,
Берег выйдет и откроет героя,
Берег выйдет и откроет врага,
Их по-прежнему останется двое.

Виски с сахаром и квашеной капустой,
Лед, холодный лед на висках,
В голове моей прохладно и пусто,
Расскажи мне, где ты и как.

Хочется блевать, но не время -
Время начищать сапоги.
Косточка, как белое стремя
Цвета чьей-то детской ноги.

Берег встретит героя
Берег встретит врага
Нас всегда было двое
А теперь - только я.


Другие новости по теме:

  • Чёрный Лукич - Берег надежды скачать mp3
  • Пляж - Южный берег скачать mp3
  • Берег - Ранний проект Вадима Мазитова скачать mp3
  • ЛихоЛесье - Третий берег скачать mp3
  • Вячеслав Бутусов - Овалы скачать mp3

  •  
     
     
    Популярные статьи
  • ДДТ - История звука
  • Мы вышли из кино. Трибьют Кино
  • Браво - Бравоспектива
  • Тараканы! - Larger Than… LIVE 25th Anniversary Show (2CD)
  • Слот - 15 (The Best Of)
  • Маша и Медведи - Мира война (Single)
  • 7Б - Солнцу решать
  • СерьГа - Приметы

  •  
    Русский рок от "А" до "Я". 2010-2017