скачать рок Русский рок от А до Я скачать рок
   
 
 
Навигация
Главная Истории групп Рок-библиотека Рок-календарь Рок-юмор mp3 Музыкальный софт Интересные ссылки Обратная связь Благодарности

Аккорды
А Б В Г Д Е
Ж З И К Л М
Н О П Р С Т
У Ф Х Ч Ш Ы
*
Э Ю Я 0-9
*

Таблица аккордов


GTP
А Б В Г Д Е
Ж З И К Л М
Н О П Р С Т
У Ф Х Ч Ш Ы
*
Э Ю Я 0-9
*

F.A.Q. по Guitar Pro 4


Опрос
Как давно вы слушаете русский рок?

 
Немного рекламы
 

 
Аккорды ДДТ - Осенняя

Аккорды ДДТ - Осенняя


Вступление:

e|---------1-------3-------0-------5----------------|
H|-----------------------------------------6--------|

e|-3-------0-------5---------------3-------0--------|
H|-------------------------6------------------------|

1 перебор:

F G E Am
e|---------------------------------|
H|---------------------------------|
G|-----2-------0-------1-------2---|
D|---3---3---0---0---2---2---2---2-|
A|-------------------------0-------|
E|-1-------3-------0---------------|

2 перебор:

F G(III) E Am
e|---------------------------------|
H|---1-1-1---3-3-3---0-0-0---1-1-1-|
G|---2-2-2---4-4-4---1-1-1---2-2-2-|
D|---3-3-3---5-5-5---2-2-2---2-2-2-|
A|-------------------------0-------|
E|-1-------3-------0---------------|

Перебор 1

F G E Am
Небеса на коне на осеннем параде,
F G E Am
Месят тесто из тех, кто представлен к награде.
F G E
А по ящику врут о войне...

Я живу на весах в это качество года,
Моя песня, конечно, дождливого рода.
F G E Am
Моя песня не спета
F G E Am
И не одета.
Моя песня - ответ письмам Анны и Лизы;
Брызги ветра висят на промокших карнизах.
F G E Am
Собрала их губами весна...
F G E Am
И исчезла она.

Проигрыш:

e|---------------------------------|
H|-3-3-3-3-0-0-0-0-0-0-0-0-1-1-1-1-|
G|-2-2-2-2-0-0-0-0-1-1-1-1-2-2-2-2-|
D|-3-3-3-3-0-0-0-0-2-2-2-2-2-2-2-2-|
A|---------------------------------|
E|---------------------------------|

e|---------------------------|
H|-3-3-3-3-0-0-0-0-0-0-0-0-1-|
G|-2-2-2-2-0-0-0-0-1-1-1-1-2-|
D|-3-3-3-3-0-0-0-0-2-2-2-2-2-|
A|---------------------------|
E|---------------------------|

1 перебор.

Я с бедой на плечах доползу до дороги,
Умереть - ничего, если выпить немного,
F G E Am
Но мешает уйти от тебя
F G E Am
Наше "Я".
Где опасности бред, там живые могилы,
Нас за верность их лет поднимают на вилы,
Этой осенью платим за свет.

Пляшем на виражах, повороты веками,
И никому нет конца, даже тем, кто не с нами.
Наша песня с тобой в облаках.

И пока ничего, ничего не случилось,
Я вчера еще помнил, что жизнь мне приснилась.

F G E Am F G E Am
Этой осенью стала она...

2 перебор.

И если вокруг - одно лихо,
И если кругом слишком тонко,
Люби всех нас, Господи, тихо,
Люби всех нас, Господи, громко.

1 перебор.

Иногда наша жизнь зарастает цветами,
Это значит, мой друг, Он прошел между нами...
Но увидеть его нелегко.

2 перебор.

И если вокруг - одно лихо,
И привычное нам слишком тонко,

1 перебор.

Люби всех нас, Господи, тихо,
Люби всех нас, Господи, громко.
Люби всех нас, Господи, тихо,
F G E
Люби всех нас, Господи...


Другие новости по теме:

  • Аккорды Юта - Ты не я
  • Аккорды Гарик Сукачев - Месяц май
  • Аккорды Разные люди - Пусть сегодня никто не умрёт
  • Аккорды Пилот - Молитва
  • Аккорды ДДТ - Метель августа (Новое сердце)

  •  
     
     
    Популярные статьи
  • ДДТ - История звука
  • Lumen - Хроника бешеных дней
  • Мы вышли из кино. Трибьют Кино
  • Легион - Двойная звезда
  • Браво - Бравоспектива
  • Тараканы! - Larger Than… LIVE 25th Anniversary Show (2CD)
  • Слот - 15 (The Best Of)
  • Маша и Медведи - Мира война (Single)

  •  
    Русский рок от "А" до "Я". 2010-2017