скачать рок Русский рок от А до Я скачать рок
   
 
 
Навигация
Главная Истории групп Рок-библиотека Рок-календарь Рок-юмор mp3 Музыкальный софт Интересные ссылки Обратная связь Благодарности

Аккорды
А Б В Г Д Е
Ж З И К Л М
Н О П Р С Т
У Ф Х Ч Ш Ы
*
Э Ю Я 0-9
*

Таблица аккордов


GTP
А Б В Г Д Е
Ж З И К Л М
Н О П Р С Т
У Ф Х Ч Ш Ы
*
Э Ю Я 0-9
*

F.A.Q. по Guitar Pro 4


Опрос
Как давно вы слушаете русский рок?

 
Немного рекламы
 

 
Аккорды Наутилус Пампилиус - Кто еще

Аккорды Наутилус Пампилиус - Кто еще


Вступление:

Em Em C C
Em Em D7 D7


Первая гитара играет:

e|--------|----------|-----|-----|--------|----------|----------|
H|5^7-5---|5^7-5-7-5-|5^8-->-----|5^7-5---|5^7-5-7-5-|----------|
G|--------|----------|-----|-----|--------|----------|5^7-5-----|6^7-5------|
D|--------|----------|-----|-----|--------|----------|----------|
A|--------|----------|-----|-----|--------|----------|----------|
E|--------|----------|-----|-----|--------|----------|----------|

Em C
Если ты хочешь любить меня - полюби мою тень,
Em D7
Открой для нее свою дверь, впусти ее в дом.
Em C
Тонкая длинная черная тварь прилипла к моим ногам,
Em D7
Она ненавидит свет, но без света ее нет.

e|8-7--5------------8---------7---5-------|
H|--------7-5-----------------------7-5---|

C C Em Em C Am D
Если ты хочешь, сделай белой мою тень.

e|8-7--5------------8---------7---5-------|
H|--------7-5-----------------------7-5---|

C C Em Em C Am D H7
Если ты можешь, сделай белой мою тень.

e|----------|-----|-----|
H|5^7-5---|5^7-5-7-5----|5^8-->-----|
G|----------|-----|-----|

Em C
Кто же, кто еще, кроме тебя.

e|-|----------|
H||5^7-5---|5^7-5-7-5------|----------|
G|-|5^7-5-----|6^7-5------|

Em D7
Кто же, кто еще, если не ты.

Em Em C C Em D7 D7
e|--------|---|----------|---|---------|----------|---------|
H|---5^7-5>---|-----5^7-5>---|---5^7-5-|----------|---------|
G|5-------|---|4-5-------|---|5--------|5^7-5-----|6^7-5----|
D|--------|---|----------|---|---------|----------|---------|
A|--------|---|----------|---|---------|----------|---------|
E|--------|---|----------|---|---------|----------|---------|

Em Em C C Em D7 D7
e|--------|---|----------|---|---------|-----5^7-|-----|
H|---5^7-5>---|-----5^7-5>---|---5^7-5-|---------|-----|
G|5-------|---|4-5-------|---|5--------|4-5------|-----|
D|--------|---|----------|---|---------|---------|-----|
A|--------|---|----------|---|---------|---------|-----|
E|--------|---|----------|---|---------|---------|-----|

e|0^7-----|7-----|----------|---8--|
H|----5-7-|--5-7-|7^8-7-8---|10----|
G|--------|------|----------|------|
D|--------|------|----------|------|
A|--------|------|----------|------|
E|--------|------|----------|------|

Если ты хочешь любить меня, приготовь для нее кров,
Слова ее все ложь, но это мои слова.
От долгих ночных бесед под утро болит голова,
Слезы падают в чай, но чай нам горек без слез.

Если ты хочешь, сделай белой мою тень,
Если ты можешь, сделай белой мою тень.
Кто же, кто еще, кроме тебя,
Кто же, кто еще, если не ты,
Если ты хочешь...


Другие новости по теме:

  • Аккорды Конец Фильма - Я дам тебе всё
  • Аккорды Уматурман - Тайд
  • Аккорды Виктор - Волк
  • Аккорды Зоопарк - Если ты хочешь
  • Аккорды Наутилус Пампилиус - Эта музыка будет вечной

  •  
     
     
    Популярные статьи
  • Чайф - Теория струн
  • Александр Балунов - Песни о любви и дружбе
  • Александр Иванов - Этой весной...
  • Адаптация - Radio Resistance
  • Владимир Кузьмин - Рокер-3. Закрытие сезона
  • Шмели - Мизантропия
  • Noize MC - Царь горы

  •  
    Русский рок от "А" до "Я". 2010-2017