скачать рок Русский рок от А до Я скачать рок
   
 
 
Навигация
Главная Истории групп Рок-библиотека Рок-календарь Рок-юмор mp3 Музыкальный софт Интересные ссылки Обратная связь

Аккорды
А Б В Г Д Е
Ж З И К Л М
Н О П Р С Т
У Ф Х Ч Ш Ы
*
Э Ю Я 0-9
*

Таблица аккордов


GTP
А Б В Г Д Е
Ж З И К Л М
Н О П Р С Т
У Ф Х Ч Ш Ы
*
Э Ю Я 0-9
*

F.A.Q. по Guitar Pro 4


Опрос
Как давно вы слушаете русский рок?

 
Немного рекламы
 

 
Аккорды Чайф - Ой-йо (Никто не услышит)

Аккорды Чайф - Ой-йо (Никто не услышит)


Вступление:

e|------0^1^3^1^0-------3---------------------0----------|
H|--2-------------0-3-----3-1-----1^3^1---1-3---3-1-0-1--|
G|-----------------------------2--------2----------------|
D|-------------------------------------------------------|
A|-------------------------------------------------------|
E|-------------------------------------------------------|

C G Am Fmaj7
От старых друзей весточки нет - грустно,
C G Am Fmaj7 G
А на душе от свежих газет пусто.
И от несвежих невелика потеха,
Правда вот был армейский дружок, уехал...

Припев:

Ой-йо, ой-йо, ой-йо.
Ой-йо, ой-йо, ой-йо.

Запил сосед, у них на фабрике стачка,
С чаем беда - осталась одна пачка.
На кухне записка: "Не жди, останусь у Гали",
По телеку рядятся, как дальше жить - достали.

Припев.

Скорей бы лед встал - пошел бы тогда на рыбалку,
Чего бы поймал - знакомым раздал, не жалко.
Луна появилась и лезет настырно все выше и выше,
Сейчас со всей мочи завою с тоски - никто не услышит!

Припев.

Проигрыш:

e|------0^1^3^1^0-------3---------------------0----------|
H|--2-------------0-3-----3-1-----1^3^1---1-3---3-1-0-1--|
G|-----------------------------2--------2----------------|
D|-------------------------------------------------------|
A|-------------------------------------------------------|
E|-------------------------------------------------------|

e|--0--------0----------------------0----------|
H|----3-1------3-1------1^3^1---1-3---3-1-3-1--|
G|--------2--------2----------2----------------|
D|---------------------------------------------|
A|---------------------------------------------|
E|---------------------------------------------|



Другие новости по теме:

  • ЧайФ - ЧайФ 15 лет скачать mp3
  • Чайф - Best of Чайф скачать mp3
  • Аккорды Гражданская оборона - Никто не хотел умирать
  • Аккорды Чайф - Внеплановый концерт
  • Аккорды Lumen - Никто не знает

  •  
     
     

    Популярные статьи

     
    Русский рок от "А" до "Я". 2010