скачать рок Русский рок от А до Я скачать рок
   
 
 
Навигация
Главная Истории групп Рок-библиотека Рок-календарь Рок-юмор mp3 Музыкальный софт Интересные ссылки Обратная связь

Аккорды
А Б В Г Д Е
Ж З И К Л М
Н О П Р С Т
У Ф Х Ч Ш Ы
*
Э Ю Я 0-9
*

Таблица аккордов


GTP
А Б В Г Д Е
Ж З И К Л М
Н О П Р С Т
У Ф Х Ч Ш Ы
*
Э Ю Я 0-9
*

F.A.Q. по Guitar Pro 4


Опрос
Как давно вы слушаете русский рок?

 
Немного рекламы
 

 
Аккорды Океан Ельзи - Голос твій

Аккорды Океан Ельзи - Голос твій


Вступление:

Am Dm

Am
Чи коли хто-небудь бачиє
Dm
З неба як впаде зоря?
Я подумав: небо плаче,
А вона його сльзоза,
Ти пiдеш на захiд сонця,
Ти побачиш ночi тiнь.
i пiд небом - тим, що плаче -
i пiд небом - тим, що плаче...

Припев:

Dm E Am F
Я почую голос твiй,
Dm E Am F
Я почую голос твiй,
Dm E Am C F
Я почую голос твiй,
Dm E
Я...

Соло на гитаре:

e|----------10-----8---7-------------------12-----11----10-----|
H|------10----------------------------10--------------------10-|
G|--9-----------------------9-----10---------------------------|

e|----------10-----8---7------------------7---4-|--------------|
H|------10---------------------------5----------|-----3(5)-----|
G|--9-----------------------9---7---------------|-4------------|

Залишаються на небi
Цi сльозинки, i завжди
Будуть люди їх шукати,
Як шукали я i ти.

i багато з них знайдеться -
Серед них буде й моя.
Тiльки небо далi плаче,
Впаде ще одна сльоза...

Припев.

Соло на пианино:

e|-10---------------|--12----------------|-10---------------||
H|-------10----9----|--------13----------|-------10----9----||
G|----------14------|--------------------|------------------||

e|--12---------------------|-10-------------|--12----------13-||
H|-------13----------------|------10---9----|--------13----13-||
G|-------------14----------|---------14-----|-----------------||
D|-------------------14----|----------------|-----------------||

Соло на гитаре.



Другие новости по теме:

  • Океан Ельзи - Там, де нас нема (Tape rip) скачать mp3
  • Аккорды Океан Ельзи - Колi тебе нема
  • Аккорды Океан Ельзи - Не питай
  • Океан Ельзи - Там, де нас нема скачать mp3
  • Аккорды Океан Ельзи - 911

  •  
     
     

    Популярные статьи

     
    Русский рок от "А" до "Я". 2010