скачать рок Русский рок от А до Я скачать рок
   
 
 
Навигация
Главная Истории групп Рок-библиотека Рок-календарь Рок-юмор mp3 Музыкальный софт Интересные ссылки Обратная связь Благодарности

Аккорды
А Б В Г Д Е
Ж З И К Л М
Н О П Р С Т
У Ф Х Ч Ш Ы
*
Э Ю Я 0-9
*

Таблица аккордов


GTP
А Б В Г Д Е
Ж З И К Л М
Н О П Р С Т
У Ф Х Ч Ш Ы
*
Э Ю Я 0-9
*

F.A.Q. по Guitar Pro 4


Опрос
Как давно вы слушаете русский рок?

 
Немного рекламы
 

 
Аккорды Юлия Чичерина - Не поздно

Аккорды Юлия Чичерина - Не поздно


Вступление:

e|-------0------|-------0------|-------0------|-------0------|
H|---3-----3---3|---3-----3---3|---3-----3---3|---3-----3---3|
G|-4---4-----4--|-3---3-----3--|-4---4-----4--|-3---3-----3--|

Пенся играется на так:

Hm
e|-------0------|-
H|---3-----3---3|-
G|-4---4-----4--|-
A
e|-------0------|-
H|---2-----2---2|-
G|-2---2-----2--|-
F#m
e|-------0------|-
H|---2-----2---2|-
G|-2---2-----2--|-

e|-------0------|-
H|---0-----0---0|-
G|-1---1-----1--|-


Hm A
Принимаю все как хочу,
F#m E
Как сама себе придумала, дура.
Hm A
То рыдаю, то хохочу,
F#m E
То театрально хватаюсь за дуло.
Hm A
Я хочу уже освободиться
F#m E
От нелепой немой игры,
Hm A
Я устала о стены биться,
F#m E A
Я устала от чувства вины.

Припев:

A E
Проснись,
F#m E
На ладонях лед – это слезы
A E F#m
Вернись,
E
Не поздно...

Я не верю, что, может быть,
Я не помню твое лицо.
Нет, я лгу, не могу забыть,
Замыкается время в кольцо.
То придумываю, то сон,
То пожар на сердце, то холод,
Ты не делаешь сам ничего,
Так спасибо хотя бы за повод.

Припев.


Другие новости по теме:

  • Аккорды Юлия Чичерина - Радиоволна
  • Аккорды Юлия Чичерина - Дорога
  • Аккорды Юлия Чичерина - На запах
  • Аккорды Юлия Чичерина - Почему?
  • Аккорды Юлия Чичерина - Ту-лу-ла

  •  
     
     
    Популярные статьи
  • Дельфин - 97 01
  • Фаэтон - Знак проклятья

  •  
    Русский рок от "А" до "Я". 2010-2017