скачать рок Русский рок от А до Я скачать рок
   
 
 
Навигация
Главная Истории групп Рок-библиотека Рок-календарь Рок-юмор mp3 Музыкальный софт Интересные ссылки Обратная связь

Аккорды
А Б В Г Д Е
Ж З И К Л М
Н О П Р С Т
У Ф Х Ч Ш Ы
*
Э Ю Я 0-9
*

Таблица аккордов


GTP
А Б В Г Д Е
Ж З И К Л М
Н О П Р С Т
У Ф Х Ч Ш Ы
*
Э Ю Я 0-9
*

F.A.Q. по Guitar Pro 4


Опрос
Как давно вы слушаете русский рок?

 
Немного рекламы
 

 
Аккорды Пилот - $100

Аккорды Пилот - $100


Вступление:

e|---------------0---------8-7-5-------|
H|-----0-1-3-1-3-----------------5-3-1-|
G|---2---------------------------------|
D|-2-----------------------------------|
A|-------------------------------------|
E|-------------------------------------|

e|---------------3-1-0-----8-7-5-------|
H|-----0-1-3-1-3-------1---------5-3-1-|
G|---2---------------------------------|
D|-2-----------------------------------|
A|-------------------------------------|
E|-------------------------------------|

Am F C E
Дождик, гад ползучий, мерзкий, доставучий,
Долбит всю дорогу по мозгам!
Ночь с мурлом селедки держит нож у глотки,
Преграждая путь моим стихам!

Боги и кастрюли, звезды и огрызки,
Ни за что на вас я не сержусь!
Ни хрена не вижу! Ни черта не слышу!
Не за что давно, но я держусь!

Припев:

Если ты еще помнишь меня,
Если я еще дорог тебе,
Если ты не совсем ожирел,
Если ты сейчас на коне,
Вышли 100$, брат! Оуо...
Вышли 100$, гад! Оуо... е-е-е...

Дворник выметает все, что не летает,
Все, о чем не стоит говорить!
А сирены воют, а старушки лают,
Старый город продолжает жить!..

Жить и ждать кого-то больше и вкуснее,
Проще и больнее, чем Иисус...
Ни шиша не помню, ни во что не верю!
Не за что давно, но я держусь!

Припев.



Другие новости по теме:

  • Аккорды Гражданская оборона - Философская песня о пуле
  • Аккорды Браво - Ветер знает
  • Аккорды Зоопарк - Если ты хочешь
  • Аккорды Чиж & Co - Если
  • Аккорды Танцы Минус - Если

  •  
     
     

    Популярные статьи

     
    Русский рок от "А" до "Я". 2010