скачать рок Русский рок от А до Я скачать рок
   
 
 
Навигация
Главная Истории групп Рок-библиотека Рок-календарь Рок-юмор mp3 Музыкальный софт Интересные ссылки Обратная связь Благодарности

Аккорды
А Б В Г Д Е
Ж З И К Л М
Н О П Р С Т
У Ф Х Ч Ш Ы
*
Э Ю Я 0-9
*

Таблица аккордов


GTP
А Б В Г Д Е
Ж З И К Л М
Н О П Р С Т
У Ф Х Ч Ш Ы
*
Э Ю Я 0-9
*

F.A.Q. по Guitar Pro 4


Опрос
Как давно вы слушаете русский рок?

 
Немного рекламы
 

 
Аккорды Инструкция по выживанию - Ветерок

Аккорды Инструкция по выживанию - Ветерок


Вступление:

e|-------------------------------------------------------|
H|----------0---------0---------0---------0---------0----|
G|-0---------0---------0---------------------------------|
D|--------0-----0---0-----0---0-----0---0---------0------|
A|-----2---------3---------3-----3-2-0-----3-2-0---------|
E|--0-2-3------------------------------------------------|

e|----------------------3---------3---------0----------------|
H|---0---------0---------0---------0---------0---------2-----|
G|----0-------------------0---------0---------0--------------|
D|-0---------0-----0---0---------0-----0---0-----0---2-----2-|
A|-----2-0-------------------------------2---------3---------|
E|---------3---------3-----0-2-3-----------------------------|

e|-----0-----------0---------0---------3---------3-|
H|------2---------2---------0---------0------------|
G|--------------0-------------0--------------------|
D|---2-----------0-------0-----------0-----0---0---|
A|-3-------3-2-0-----3-2-------2-0-----------------|
E|----------------------3---------3----------------|

e|-0---------0---------0---------0---------3----------------|
H|-2---------2---------2---------2---------0----------------|
G|---0-------------------0-------------------0--------------|
D|--5-4-----2-----2---2---5-4---2-----2---2---------0-----0-|
A|--------3---------3---------3---------3-----2-0-----------|
E|-------------------------------------3--------------------|

e|-----0---------3---------3---------0---------0--|
H|-----3---------0---------0---------2---------2--|
G|------0---------0---------0---------------------|
D|---0---------0-----0---0-----0---2-----2---2----|
A|----------2---------3---------3-----------------|
E|-3-----0-2-3------------------------------------|

e|-0-----0-------------------------3----------3-----------|
H|-----------------------------------0--------------------|
G|----------0-------------------------------------0-------|
D|---5-4--2-------------0-------------------0----------0--|
A|---3-2----------0---3--2-0----2----------2--------------|
E|---------------------------3-----------3----------------|

G C
Пролетал ветерок по проселкам,
D G
По лентам бетонных дорог,
G C D
Пролетал ветерок по Сибирским просторам
G
Лесов и болот...
C Am
И с собой ветерок нес протяжную песню
D G
Бескрайних полей,
C Am
Вей, ветерок, вей ветерок,
D G
Я прошу тебя, вей!

А внизу - города и огни,
И заводов стальных корабли...
А внизу, как всегда
Затаенная правда погибшей любви...
Но во имя людей
И рассудку земному порой вопреки,
Слышишь, вей ветерок, вей ветерок
Прогони все дождливые тучи тоски
Вей, ветерок, вей ветерок,
Я прошу тебя, вей!

Может, там, впереди
И дожди, и громадные тьмы облаков,
Ты лети, не грусти,
Даже если дожди одолеть не легко...
Ради нашей любви,
Ради дальних дорог, ради солнечных дней,
Вей, ветерок, вей ветерок,
Я прошу тебя, вей!
Вей, ветерок, вей ветерок,
Я прошу тебя, вей!


Другие новости по теме:

  • Инструкция по выживанию - Концерт в Санкт-Петербурге скачать mp3
  • Инструкция по выживанию - Звездное небо 1 (Акустика) скачать mp3
  • Аккорды ДДТ - Агидель (Белая река)
  • Полковник и однополчане - Первый призыв скачать mp3
  • Аккорды Никольский Константин - Один взгляд назад

  •  
     
     
    Популярные статьи

     
    Русский рок от "А" до "Я". 2010-2017