скачать рок Русский рок от А до Я скачать рок
   
 
 
Навигация
Главная Истории групп Рок-библиотека Рок-календарь Рок-юмор mp3 Музыкальный софт Интересные ссылки Обратная связь Благодарности

Аккорды
А Б В Г Д Е
Ж З И К Л М
Н О П Р С Т
У Ф Х Ч Ш Ы
*
Э Ю Я 0-9
*

Таблица аккордов


GTP
А Б В Г Д Е
Ж З И К Л М
Н О П Р С Т
У Ф Х Ч Ш Ы
*
Э Ю Я 0-9
*

F.A.Q. по Guitar Pro 4


Опрос
Как давно вы слушаете русский рок?

 
Немного рекламы
 

 
Аккорды Наутилус Помпилиус - На берегу безымянной реки

Аккорды Наутилус Помпилиус - На берегу безымянной реки


Вступление:

e|---1----0-----------------------|-----------------------|-----------|
H|-------------3--------------3---|-----------------------|-------3-5-|
G|-2----2----2-----2^3^2--0-2---0-|-3--2--0----0^2^0------|-----2-----|
D|--------------------------------|----------3-------3-0--|-2/3-------|
A|--------------------------------|-----------------------|-----------|
E|--------------------------------|-----------------------|-----------|

Тема под припев и соло:

e|------------------------|-----------------|--------------------------|
H|------------------------|-----------------|--------------------------|
G|----------------9-10----|-----------------|------------------9-10----|
D|-10--8-7-10----------10-|-10--7-8-10------|-10--8-7-10------------10-|
A|------------8-8---------|------------8--8-|-------------8--8---------|
E|------------------------|-----------------|--------------------------|

e|--------------------------------------|
H|-----------------------10----13\10----|
G|-10------10-9-----9-10----------------|
D|-----10-------10----------------------|
A|--------------------------------------|
E|--------------------------------------|

Dm Am
Мы будем жить с тобой в маленькой хижине,
Gm Am Dm
На берегу очень тихой реки,
Dm Am
Никто и никогда, поверь, не будет обиженным,
Gm Am Dm
На то, что когда-то покинул пески.

Припев:

B F Gm Dm
На берегу очень дикой реки,
B F Gm Dm
На берегу этой тихой реки,
B F Gm Dm
В дебрях чужих у священной воды,
Gm C F A
В теплых лесах безымянной реки.

Движенья твои очень скоро станут плавными,
Походка и жесты осторожны и легки,
Никто и никогда не вспомнит самого главного,
У безмятежной и медленной реки.

Припев.

И если когда-нибудь случиться беда,
Найди верный камень там, где скалы у реки,
Прочти то, что высекла холодная вода,
Но ты эту тайну навсегда сбереги.

Припев.


Другие новости по теме:

  • Наутилус Помпилиус - Серебряный век. Лучшие песни 1991-1997 скачать mp3
  • Наутилус Помпилиус - Grand Collection II скачать mp3
  • Наутилус Помпилиус - Чужая земля скачать mp3
  • Аккорды Чиж & Co - Еду, еду...
  • Аккорды Наутилус Помпилиус - Гуд-бай, Америка

  •  
     
     
    Популярные статьи

     
    Русский рок от "А" до "Я". 2010-2017