скачать рок Русский рок от А до Я скачать рок
   
 
 
Навигация
Главная Истории групп Рок-библиотека Рок-календарь Рок-юмор mp3 Музыкальный софт Интересные ссылки Обратная связь Благодарности

Аккорды
А Б В Г Д Е
Ж З И К Л М
Н О П Р С Т
У Ф Х Ч Ш Ы
*
Э Ю Я 0-9
*

Таблица аккордов


GTP
А Б В Г Д Е
Ж З И К Л М
Н О П Р С Т
У Ф Х Ч Ш Ы
*
Э Ю Я 0-9
*

F.A.Q. по Guitar Pro 4


Опрос
Как давно вы слушаете русский рок?

 
Немного рекламы
 

 
Аккорды Сплин - Бог устал нас любить

Аккорды Сплин - Бог устал нас любить


e|-----------------------------------------------------|
H| -------1-----------1------------0-----0-----0-------|
G| -----2-----2-----2-----0------0-----0-----0-----0---|
D| ---2-----2-----0-----2------0-----0-----0-----0-----|
A| -0--------------------------------------------------|
E| --------------2-----------3-------------------------|

e|-----------------------------------------------------|
H| -------1-----------1------------0------0-----3--1-0-|
G| -----2---2-------2---2--------0---0------0----------|
D| ---2-------2---0-------0----0-------0------0--------|
A| -0--------------------------------------------------|
E| --------------2-----------3-------------------------|

Am D/F# G6
Мы чересчур увеличили дозу,
Вспомнили все что хотели забыть,
Или на рельсы легли слишком поздно,
G6 Am
Бог устал нас любить...

Припев:

D/F# G6
Бог устал нас любить,
Am
Бог просто устал нас любить,
D/F# G6
Бог просто устал.

Вот она, гильза от пули навылет,
Карта, которую нечем покрыть,
Мы остаемся одни в этом мире,
Бог устал нас любить...

Припев.

Я рассказал бы тебе все что знаю,
Только об этом нельзя говорить,
Выпавший снег никогда не растает,
Бог устал нас любить...

Припев.


Другие новости по теме:

  • Аккорды Сектор Газа - Я устал
  • Аккорды Захар Май - Я посылаю всё
  • Сплин - Зн@менатель скачать mp3
  • Сплин - Гранатовый альбом скачать mp3
  • Аккорды Аквариум – Фома

  •  
     
     
    Популярные статьи
  • Танцы Минус - Три
  • Территория Отчуждения - Брать живьём!
  • Дельфин - 97 01
  • 5'nizza - КУ
  • Станционный Смотритель - СтереоС
  • Фаэтон - Знак проклятья

  •  
    Русский рок от "А" до "Я". 2010-2017