скачать рок Русский рок от А до Я скачать рок
   
 
 
Навигация
Главная Истории групп Рок-библиотека Рок-календарь Рок-юмор mp3 Музыкальный софт Интересные ссылки Обратная связь

Аккорды
А Б В Г Д Е
Ж З И К Л М
Н О П Р С Т
У Ф Х Ч Ш Ы
*
Э Ю Я 0-9
*

Таблица аккордов


GTP
А Б В Г Д Е
Ж З И К Л М
Н О П Р С Т
У Ф Х Ч Ш Ы
*
Э Ю Я 0-9
*

F.A.Q. по Guitar Pro 4


Опрос
Как давно вы слушаете русский рок?

 
Немного рекламы
 

 
Аккорды Сплин - Весь этот бред

Аккорды Сплин - Весь этот бред


Вступление:

e|--------------------|
H|--------------------|
G|----0-----------2---|
D|----0-----------0---|
A|--2----2------0-----|
E|3-----------2-------|

Первый куплет:

e|------------------------------------------------------|
H|--------------1---------------------------------------|
G|----0---------0---------0---------2----------0--000-0-|
D|----2-------2----2------0---------0----------2--222-2-|
A|--2----2--3-----------2----2----0----0-----2----222---|
E|0-------------------3---------2----------0------------|

e|-----------------------------------------------|
H|----1------------------------------------------|
G|----0-------------0---------2----------0----00-|
D|--2----2-222------0---------0----------2----22-|
A|3---------------2----2----0----0-----2-----2---|
E|--------------3---------2----------0-----0-----|

Em C G D/F# Em
Я отключил телефон, завел на восемь будильник,
C G D/F# Em
Я объяснил тебе где в квартире спрятался душ.

C Am C Am D7
Твои соленые слезы, кислые мины, душные речи,
G D/F# Em C G D/F#
Я умираю со скуки, когда меня кто-то лечит.

Ты хороша как узор в прямоугольной бумаге,
Вечнозеленый цветок и порошок в зеркалах.

Ты так хороша, длинные пальцы, узкие джинсы,
Шея и плечи, но-о...
Я умираю со скуки, когда меня кто-то лечит,
C G D/F# Em C G D/F#
Я ненавижу, когда меня кто-то...

Гадай на картах таро и что осталось от кофе,
Не продырявь мне башку взглядом внимательных глаз,
Твои соленые слезы, кислые мины, душные речи,
Весь этот бред...
Я умираю со скуки, когда меня кто-то лечит,
Я умираю со скуки, когда меня кто-то лечит,
Я ненавижу, когда меня кто-то ...



Другие новости по теме:

  • Аккорды Воскресение - Когда ты смотришь на меня
  • Аккорды Аквариум – Таможенный блюз
  • Аккорды Смысловые Галлюцинации - Разум когда-нибудь победит
  • Аккорды Фадеев Максим - Я не верю твоим глазам
  • Аккорды Мумий Тролль - Малыш

  •  
     
     

    Популярные статьи

     
    Русский рок от "А" до "Я". 2010