скачать рок Русский рок от А до Я скачать рок
   
 
 
Навигация
Главная Истории групп Рок-библиотека Рок-календарь Рок-юмор mp3 Музыкальный софт Интересные ссылки Обратная связь Благодарности

Аккорды
А Б В Г Д Е
Ж З И К Л М
Н О П Р С Т
У Ф Х Ч Ш Ы
*
Э Ю Я 0-9
*

Таблица аккордов


GTP
А Б В Г Д Е
Ж З И К Л М
Н О П Р С Т
У Ф Х Ч Ш Ы
*
Э Ю Я 0-9
*

F.A.Q. по Guitar Pro 4


Опрос
Как давно вы слушаете русский рок?

 
Немного рекламы
 

 
Аккорды Чиж & Co - На двоих

Аккорды Чиж & Co - На двоих


Em Am
На двоих один паспорт для развода ментов,
D G D Em
Плэйер марки "Романтик" и кассета Битлов,
На двоих один свитер для холодных ночей,
Пара банок консервов, полкило сухарей.

G D Em G D Em G D F C Em D G
e|-7----------7----------7--10------8---------7----------------|
Н|----10--8------10--8----------10-----8--7-----10-8-----------|
G|------------------------------------------7------------------|

На двоих один берег, на двоих один лес,
На двоих одно горе, на двоих один крест,
На двоих целый месяц и бутылка вина,
На двоих Parabellum, если война.

На двоих сигарета и пара бычков,
На двоих один зонтик, и одна любовь.
На двоих один доллар на обратный проезд,
На двоих одно горе, для двоих один крест...

Проигрыш:

e|-7v-5----7v-5---7-5-5-4/5----------7-5-----------------7-5---|
H|------88------8-----------88-7/8-7-----8-7-10-10/12-12-----88|
G|-------------------------------------------------------------|
D|-------------------------------------------------------------|
A|-------------------------------------------------------------|
E|-------------------------------------------------------------|

e|-7-5-4/5-5-5---------7-5-------------------------------------|
H|-------------8-7/8-7-----8-----------------------------------|
G|-------------------------------------------------------------|
D|-------------------------------------------------------------|
A|-------------------------------------------------------------|
E|-------------------------------------------------------------|

Этот проигрыш играется между первым и вторым куплетом:

e|-7-5-5----7-5-5-7----7-5-5-4/5---------7-5-------------------|
H|-------8----------8------------8-7/8-8-----8-----------------|
G|-------------------------------------------------------------|
D|-------------------------------------------------------------|
A|-------------------------------------------------------------|
E|-------------------------------------------------------------|

Основное соло после второго куплета:

e|------------------------------7b-7---------------------------|
H|-7r-7/8---5-7r-8-7-5---5-8/10------11Н10Н8-11Н10Н8-8--8-7----|
G|--------8------------8------------------------------------8-9|
D|-------------------------------------------------------------|
A|-------------------------------------------------------------|
E|-------------------------------------------------------------|

e|-------------------------------------------------------------|
H|---------------------------5-7-8-8-10-12-12-12р13Н12-10-12р13|
G|-----------------7р8р9-7-9-----------------------------------|
D|-7р8Н7-7-5-7-5-----------------------------------------------|
A|---------------7---------------------------------------------|
E|-------------------------------------------------------------|


e|------------------------------------------------7-5-5---7-5--|
H|-11Н10-8-10-8---8-10b---10r-10r-8-------------8-------8-----8|
G|--------------9---------------------------7-9----------------|
D|----------------------------------5-7-7/9--------------------|
A|-------------------------------------------------------------|
E|-------------------------------------------------------------|


e|-7-5-5-----7-7-7-7r-5-7-5----------7-5-----------------------|
H|--------8-----------------8--8-7-7-----8---------------------|
G|-------------------------------------------------------------|
D|-------------------------------------------------------------|
A|-------------------------------------------------------------|
E|-------------------------------------------------------------|


Другие новости по теме:

  • Аккорды Жуки - Йогурты
  • Аккорды 9 район - Good bye
  • Аккорды Наутилус Помпилиус - Дыхание
  • Аккорды Сплин - Где ты была?
  • Аккорды Земфира - До свидания...

  •  
     
     
    Популярные статьи
  • Танцы Минус - Три
  • Территория Отчуждения - Брать живьём!
  • Дельфин - 97 01
  • 5'nizza - КУ
  • Станционный Смотритель - СтереоС
  • Фаэтон - Знак проклятья

  •  
    Русский рок от "А" до "Я". 2010-2017