скачать рок Русский рок от А до Я скачать рок
   
 
 
Навигация
Главная Истории групп Рок-библиотека Рок-календарь Рок-юмор mp3 Музыкальный софт Интересные ссылки Обратная связь Благодарности

Аккорды
А Б В Г Д Е
Ж З И К Л М
Н О П Р С Т
У Ф Х Ч Ш Ы
*
Э Ю Я 0-9
*

Таблица аккордов


GTP
А Б В Г Д Е
Ж З И К Л М
Н О П Р С Т
У Ф Х Ч Ш Ы
*
Э Ю Я 0-9
*

F.A.Q. по Guitar Pro 4


Опрос
Как давно вы слушаете русский рок?

 
Немного рекламы
 

 
Аккорды Чиж & Co - Есть!

Аккорды Чиж & Co - Есть!


e|-----------------------------------------------------------|
B|-----------------------------------------------------------|
G|-5--5--5--5--4--5/7--7--5--4------7--7--7--7--5--7/8--8--7-|
D|-------------------------------5---------------------------|
A|-----------------------------------------------------------|
E|-----------------------------------------------------------|

e|------------------------------------------------------------------|
B|------------------------------------------------------------------|
G|-5-----8---8---8---8---7---8/10---10---8---7----10--10--10--10--8-|
D|----6------------------------------------------8------------------|
A|------------------------------------------------------------------|
E|------------------------------------------------------------------|

e|----------------------------------------------------------|
B|----------------------------------------------------------|
G|--10---12---10---8---10---12~---5---l(5)---l(7)---l(7)----|
D|---------------------------------------------------------5|
A|----------------------------------------------------------|
E|----------------------------------------------------------|

Hm
Жил да был на белом свете
H Em
Симпатичный парень целых 20 лет,
F#
Всё твердил все годы эти
Hm
Что любви на белом свете больше нет.

Но однажды он случайно,
H Em
Вдруг глазастую девчонку увидал,
F#
И назначил ей свиданье и пришел,
Hm
И с нетерпеньем ожидал.

Припев:

F#
А девчонка та проказница,
Hm
На свиданье не показывается,
A
Он и есть и пить отказывается,
D
А любовь то есть оказывается,
Em F# Hm
Есть!

Потерял он и покой и сон,
И голову на время потерял,
Все заветные слова для объяснения,
Ночами повторял.
В каждой встречной незнакомке,
Всё девчонку ту глазастую искал,
И гвоздики и фиалки,
Даже розы на свидание таскал.

Припев:

А девчонка та проказница,
На свиданье не показывается,
Он и есть, и пить отказывается,
У нее другой оказывается,
Есть!

А друзья его приятели твердят,
Что, мол, других полным полно,
Только он своей невстреченной,
На встречу все несется все равно.
Все надеется что вдруг,
Да разонравится девчонке тот другой,
И придет она к нему в конце концов,
И скажет "Здравствуй дорогой".

Припев:

Но девчонка та проказница,
На свиданье не показывается,
От другого не отказывается,
А любовь, то есть оказывается,
Есть! Есть!
Есть! Есть!
Есть! Есть!
Есть! Есть!


Другие новости по теме:

  • Аккорды Виктор - Такой я есть
  • Аккорды Воскресение - Есть у меня...
  • Аккорды Аквариум - Время луны
  • Аккорды Кино - Время есть, а денег нет
  • Аккорды Кино - Место для шага вперёд

  •  
     
     
    Популярные статьи
  • Танцы Минус - Три
  • Территория Отчуждения - Брать живьём!
  • Дельфин - 97 01
  • 5'nizza - КУ
  • Станционный Смотритель - СтереоС
  • Фаэтон - Знак проклятья

  •  
    Русский рок от "А" до "Я". 2010-2017