скачать рок Русский рок от А до Я скачать рок
   
 
 
Навигация
Главная Истории групп Рок-библиотека Рок-календарь Рок-юмор mp3 Музыкальный софт Интересные ссылки Обратная связь Благодарности

Аккорды
А Б В Г Д Е
Ж З И К Л М
Н О П Р С Т
У Ф Х Ч Ш Ы
*
Э Ю Я 0-9
*

Таблица аккордов


GTP
А Б В Г Д Е
Ж З И К Л М
Н О П Р С Т
У Ф Х Ч Ш Ы
*
Э Ю Я 0-9
*

F.A.Q. по Guitar Pro 4


Опрос
Как давно вы слушаете русский рок?

 
Немного рекламы
 

 
Аккорды Чайф - Шаляй-Валяй

Аккорды Чайф - Шаляй-Валяй


Вступление:

e|-------------------------------------------------|
H|-------------------------------------------------|
G|-------------------------------------------------|
D|-7---7-9---9-7---7-9---9-4---4-5---5-4---4-5---5-|
A|-5---5-5---5-5---5-5---5-2---2-2---2-2---2-2---2-|
E|-6-----------------------------------------------|

e|-------------------------------------------------|
H|-------------------------------------------------|
G|-------------------------------------------------|
D|-7---7-9---9-7---7-9---9-4---4-5---5-4---4-5---5-|
A|-5---5-5---5-5---5-5---5-2---2-2---2-2---2-2---2-|
E|-------------------------------------------------|

Не гони нас дядя из подъезда,

e|-------------------------------------------------|
H|-------------------------------------------------|
G|-------------------------------------------------|
D|-7---7-9---9-7---7-9---9-2---2-4---4-2---2-4---4-|
A|-5---5-5---5-5---5-5---5-0---0-0---0-0---0-0---0-|
E|-------------------------------------------------|

Мы не будем больше громко петь,
Мы не будем больше пить, материться и курить,
Ну а если вдруг захочешь, сам лучше нас не приглашай.

e|--------------------------|
H|--------------------------|
G|--------------------------|
D|-7---7-9---9-7---7-9---9--|
A|-5---5-5---5-5---5-5---5--|
E|--------------------------|
A
Мы прощаемся сегодня с ним... Шаляй-Валяй

Припев:

D Hm
До свиданья, милый друг... Шаляй-Валяй,
D Hm
Ты уходишь как-то вдруг... Шаляй-Валяй,
G A(5)
Ты уходишь не простившись, ты уходишь невзначай,
D A(5)
Так до свиданья, милый друг... Шаляй-Валяй...

Проигрыш:

e|---5/7/5/----2--5--7--5--7--10/12/---10--5--7-|
H|----------------------------------------------|
G|----------------------------------------------|

e|-7--5--2--5/7/5--2--5--7-|
H|-------------------------|
G|-------------------------|

e|-5--7--10/12/---10--5--7----7--5--2----5-0---5--|
H|--------------------------5-----5---------------|
G|------------------------------------------------|

e|-0---5-0----------------2-|
H|--5-----5----------3-5----|
G|--0-2-4-------------------|


e|-5---5--2-------2-5-0-----|
H|5-------------------------|
G|--------------------------|

...Шаляй-Валяй

D Hm
Я думал у нас в запасе, еще как минимум лет пять,
D
Я был просто уверен, что у нас хватит,
Hm
Время попить пиво и поболтать, но,
G A(5)
Но вот я вижу твою спину с трафаретом "Не скучай".
D A(5)...
Стой задержись хотя б на день... Шаляй-Валяй...

Проигрыш: D Hm D Hm

G A(5)
О-о-о-о-о-о-о-о, о о о о-о-о-о..
D Hm G A(5)
О-о-о-о-о-о, о-о-о-о-о, о-о-о-о-о, о-о-о-о...
D
Оо-о-о-о-о-о-о...


Другие новости по теме:

  • ЧайФ - ЧайФ 15 лет скачать mp3
  • Чайф - Best of Чайф скачать mp3
  • Легенды русского рока - Чайф скачать mp3
  • Чайф - Оранжевое настроение – II скачать mp3
  • Чайф - Дерьмонтин скачать mp3

  •  
     
     
    Популярные статьи
  • Виктор Цой и группа Кино - 55 (3CD)
  • Танцы Минус - Три
  • Дельфин - 97 01
  • Территория Отчуждения - Брать живьём!
  • 5'nizza - КУ
  • Velvet - Отчёт
  • Станционный Смотритель - СтереоС
  • Зимавсегда - Всеоружие
  • Фаэтон - Знак проклятья

  •  
    Русский рок от "А" до "Я". 2010-2017