скачать рок Русский рок от А до Я скачать рок
   
 
 
Навигация
Главная Истории групп Рок-библиотека Рок-календарь Рок-юмор mp3 Музыкальный софт Интересные ссылки Обратная связь Благодарности

Аккорды
А Б В Г Д Е
Ж З И К Л М
Н О П Р С Т
У Ф Х Ч Ш Ы
*
Э Ю Я 0-9
*

Таблица аккордов


GTP
А Б В Г Д Е
Ж З И К Л М
Н О П Р С Т
У Ф Х Ч Ш Ы
*
Э Ю Я 0-9
*

F.A.Q. по Guitar Pro 4


Опрос
Как давно вы слушаете русский рок?

 
Немного рекламы
 

 
Аккорды ДДТ - В последнюю осень

Аккорды ДДТ - В последнюю осень


Вступление:

H|---0-1--------------------------|
G|-2-----2----0-2--------2--1-2-4-|
D|----------3-----3--0-2----------|

H|---0-1---------------0-1--0-1-3-|
G|-2-----2----0-2----2------------|
D|----------3-----3---------------|

H|---0-1--------------------------|
G|-2-----2----0-2--------2--1-2-4-|
D|----------3-----3--0-2----------|

e|---------------------------------0-1-3--4-5-7-|
H|---0-1---------------0-1--0-1-3---------------|
G|-2-----2----0-2----2--------------------------|
D|----------3-----3-----------------------------|

D Em C G
В последнюю осень ни строчки, ни вздоха,
D Em C G
Последние песни осыпались летом.
H7 Em C G
Прощальным костром догорает эпоха,
H7 Em C G
И мы наблюдаем за тенью и светом.

Припев:

H7 Em C G
В последнюю осень...
В последнюю осень...

Голодная буря, шутя разметала,
Все то, что душило нас пыльною ночью.
Все то, что давило, играло, мерцало,
Осиновым ветром разорвано в клочья.

Припев.

Ах, Александр Сергеевич, милый,
Ну что же Вы нам ничего не сказали,
О том, как дышали, искали, любили,
О том, что в последнюю осень Вы знали.

Припев.

H7 Em C G
Голодное море, шипя поглотило
Осеннее солнце, и за облаками,
Вы больше не вспомните то, что здесь было,
И пыльной травы не коснётесь руками.
Уходят в последнюю осень поэты,
И их не вернуть - заколочены ставни.
Остались дожди и замёрзшее лето,
Осталась любовь и ожившие камни.

Припев.


Другие новости по теме:

  • ДДТ - Актриса Весна скачать mp3
  • Аккорды ДДТ - Последняя осень
  • Аккорды ДДТ - В последнюю осень
  • Аккорды Хуй забей - Осень
  • Что такое осень

  •  
     
     
    Популярные статьи
  • Дельфин - 97 01
  • Фаэтон - Знак проклятья

  •  
    Русский рок от "А" до "Я". 2010-2017