скачать рок Русский рок от А до Я скачать рок
   
 
 
Навигация
Главная Истории групп Рок-библиотека Рок-календарь Рок-юмор mp3 Музыкальный софт Интересные ссылки Обратная связь Благодарности

Аккорды
А Б В Г Д Е
Ж З И К Л М
Н О П Р С Т
У Ф Х Ч Ш Ы
*
Э Ю Я 0-9
*

Таблица аккордов


GTP
А Б В Г Д Е
Ж З И К Л М
Н О П Р С Т
У Ф Х Ч Ш Ы
*
Э Ю Я 0-9
*

F.A.Q. по Guitar Pro 4


Опрос
Как давно вы слушаете русский рок?

 
Немного рекламы
 

 
Аккорды Кино - Дерево

Аккорды Кино - Дерево


Вступление:

e|----------------------|---------------------|
H|---------------3------|--------------0------|
G|------0---------------|-----0---------------|
D|--------5-----------5-|-------5-----------5-|
A|---7-------7-----7----|--5-------5-----5----|
E|----------------------|---------------------|

e|----------------------|---------------------|
H|-----0---------3------|---------------------|
G|-------4----4-------4-|-----2--------0----0-|
D|--5-------5------5----|--4----4--------4----|
A|----------------------|----------2----------|
E|----------------------|---------------------|

e|----------------------|---------------------|
H|---------------3------|--------------0------|
G|------0-0-----------0-|-----0-0----------0--|
D|---2--------2----2----|--0-------0-----0----|
A|----------------------|---------------------|
E|----------------------|---------------------|

e|----------------------|---------------------|
H|-----0---------3------|---------------------|
G|-------4----4-------4-|-----2--------0----0-|
D|--5-------5------5----|--4----4--------4----|
A|----------------------|----------2----------|
E|----------------------|---------------------|

Em D G H7

Em D G H7
Я знаю, моё дерево не проживёт и недели,
Em D G H7
Я знаю, моё дерево в этом городе обречено.
Em D
Но я всё своё время провожу рядом с ним,
G H7
Мне все другие дела надоели.
Em D
Мне кажется, что это мой дом,
G H7
Мне кажется, что это мой друг.
Em D G H7
Я посадил дерево, я посадил дерево,
Em D G H7
Я посадил дерево, я посадил дерево.

Em D G H7
Я знаю, моё дерево завтра может сломать школьник,
Em D G H7
Я знаю, моё дерево скоро оставит меня.
Em D
Но пока оно есть я всегда рядом с ним,
G H7
Мне с ним радостно, мне с ним больно.
Em D
Мне кажется, что это мой мир,
G H7
Мне кажется, что это мой сын.
Em D G H7
Я посадил дерево, я посадил дерево,
Em D G H7 Em D G H7 Em
Я посадил дерево, я посадил дерево.


Другие новости по теме:

  • Аккорды Смысловые Галлюцинации - Первый день осени
  • Аккорды Танцы Минус - Дерево
  • Кино - 45 скачать mp3
  • Аккорды Аквариум - Дерево
  • Аккорды Рада & Терновник - Кукушка

  •  
     
     
    Популярные статьи
  • Дельфин - 97 01
  • Фаэтон - Знак проклятья

  •  
    Русский рок от "А" до "Я". 2010-2017